  0
SECTION
  2
HEADER
  9
$ACADVER
  1
AC1015
  9
$ACADMAINTVER
 70
    20
  9
$DWGCODEPAGE
  3
ANSI_1252
  9
$INSBASE
 10
5826.247144840287
 20
-671.352250061278
 30
0.0
  9
$EXTMIN
 10
7316.07987654352
 20
-239.2526467060934
 30
0.0
  9
$EXTMAX
 10
7380.426951918692
 20
-201.2708615015533
 30
0.0
  9
$LIMMIN
 10
0.0
 20
0.0
  9
$LIMMAX
 10
1728.0
 20
1152.0
  9
$ORTHOMODE
 70
     1
  9
$REGENMODE
 70
     1
  9
$FILLMODE
 70
     1
  9
$QTEXTMODE
 70
     0
  9
$MIRRTEXT
 70
     0
  9
$LTSCALE
 40
7.5
  9
$ATTMODE
 70
     1
  9
$TEXTSIZE
 40
5.0
  9
$TRACEWID
 40
0.05
  9
$TEXTSTYLE
  7
ARCHS
  9
$CLAYER
  8
WALL
  9
$CELTYPE
  6
BYLAYER
  9
$CECOLOR
 62
   256
  9
$CELTSCALE
 40
1.0
  9
$DISPSILH
 70
     0
  9
$DIMSCALE
 40
1.0
  9
$DIMASZ
 40
4.0
  9
$DIMEXO
 40
4.0
  9
$DIMDLI
 40
0.0
  9
$DIMRND
 40
0.0
  9
$DIMDLE
 40
4.0
  9
$DIMEXE
 40
4.0
  9
$DIMTP
 40
0.0
  9
$DIMTM
 40
0.0
  9
$DIMTXT
 40
5.0
  9
$DIMCEN
 40
0.0625
  9
$DIMTSZ
 40
0.0
  9
$DIMTOL
 70
     0
  9
$DIMLIM
 70
     0
  9
$DIMTIH
 70
     0
  9
$DIMTOH
 70
     0
  9
$DIMSE1
 70
     0
  9
$DIMSE2
 70
     0
  9
$DIMTAD
 70
     1
  9
$DIMZIN
 70
     3
  9
$DIMBLK
  1

  9
$DIMASO
 70
     1
  9
$DIMSHO
 70
     1
  9
$DIMPOST
  1

  9
$DIMAPOST
  1

  9
$DIMALT
 70
     0
  9
$DIMALTD
 70
     2
  9
$DIMALTF
 40
25.4
  9
$DIMLFAC
 40
1.0
  9
$DIMTOFL
 70
     0
  9
$DIMTVP
 40
0.0
  9
$DIMTIX
 70
     0
  9
$DIMSOXD
 70
     0
  9
$DIMSAH
 70
     1
  9
$DIMBLK1
  1
ARCHTICK
  9
$DIMBLK2
  1
ARCHTICK
  9
$DIMSTYLE
  2
LORI
  9
$DIMCLRD
 70
     0
  9
$DIMCLRE
 70
     0
  9
$DIMCLRT
 70
     0
  9
$DIMTFAC
 40
1.0
  9
$DIMGAP
 40
1.0
  9
$DIMJUST
 70
     0
  9
$DIMSD1
 70
     0
  9
$DIMSD2
 70
     0
  9
$DIMTOLJ
 70
     1
  9
$DIMTZIN
 70
     3
  9
$DIMALTZ
 70
     3
  9
$DIMALTTZ
 70
     3
  9
$DIMUPT
 70
     0
  9
$DIMDEC
 70
     4
  9
$DIMTDEC
 70
     4
  9
$DIMALTU
 70
     4
  9
$DIMALTTD
 70
     2
  9
$DIMTXSTY
  7
ARCHS
  9
$DIMAUNIT
 70
     0
  9
$DIMADEC
 70
     0
  9
$DIMALTRND
 40
0.0
  9
$DIMAZIN
 70
     0
  9
$DIMDSEP
 70
    46
  9
$DIMATFIT
 70
     3
  9
$DIMFRAC
 70
     2
  9
$DIMLDRBLK
  1
ARCHTICK
  9
$DIMLUNIT
 70
     4
  9
$DIMLWD
 70
    -2
  9
$DIMLWE
 70
    -2
  9
$DIMTMOVE
 70
     2
  9
$LUNITS
 70
     4
  9
$LUPREC
 70
     4
  9
$SKETCHINC
 40
0.1
  9
$FILLETRAD
 40
0.0
  9
$AUNITS
 70
     0
  9
$AUPREC
 70
     0
  9
$MENU
  1
ACAD
  9
$ELEVATION
 40
0.0
  9
$PELEVATION
 40
0.0
  9
$THICKNESS
 40
0.0
  9
$LIMCHECK
 70
     0
  9
$CHAMFERA
 40
4.0
  9
$CHAMFERB
 40
4.0
  9
$CHAMFERC
 40
0.0
  9
$CHAMFERD
 40
0.0
  9
$SKPOLY
 70
     0
  9
$TDCREATE
 40
2450873.520156481
  9
$TDUCREATE
 40
2450873.686823148
  9
$TDUPDATE
 40
2453959.006007361
  9
$TDUUPDATE
 40
2453959.172674028
  9
$TDINDWG
 40
1.2713300694
  9
$TDUSRTIMER
 40
1.2713300694
  9
$USRTIMER
 70
     1
  9
$ANGBASE
 50
0.0
  9
$ANGDIR
 70
     0
  9
$PDMODE
 70
     0
  9
$PDSIZE
 40
0.6666666666666666
  9
$PLINEWID
 40
0.0
  9
$SPLFRAME
 70
     0
  9
$SPLINETYPE
 70
     6
  9
$SPLINESEGS
 70
     8
  9
$HANDSEED
  5
1589
  9
$SURFTAB1
 70
     6
  9
$SURFTAB2
 70
     6
  9
$SURFTYPE
 70
     6
  9
$SURFU
 70
     6
  9
$SURFV
 70
     6
  9
$UCSBASE
  2

  9
$UCSNAME
  2

  9
$UCSORG
 10
0.0
 20
0.0
 30
0.0
  9
$UCSXDIR
 10
1.0
 20
0.0
 30
0.0
  9
$UCSYDIR
 10
0.0
 20
1.0
 30
0.0
  9
$UCSORTHOREF
  2

  9
$UCSORTHOVIEW
 70
     0
  9
$UCSORGTOP
 10
0.0
 20
0.0
 30
0.0
  9
$UCSORGBOTTOM
 10
0.0
 20
0.0
 30
0.0
  9
$UCSORGLEFT
 10
0.0
 20
0.0
 30
0.0
  9
$UCSORGRIGHT
 10
0.0
 20
0.0
 30
0.0
  9
$UCSORGFRONT
 10
0.0
 20
0.0
 30
0.0
  9
$UCSORGBACK
 10
0.0
 20
0.0
 30
0.0
  9
$PUCSBASE
  2

  9
$PUCSNAME
  2

  9
$PUCSORG
 10
0.0
 20
0.0
 30
0.0
  9
$PUCSXDIR
 10
1.0
 20
0.0
 30
0.0
  9
$PUCSYDIR
 10
0.0
 20
1.0
 30
0.0
  9
$PUCSORTHOREF
  2

  9
$PUCSORTHOVIEW
 70
     0
  9
$PUCSORGTOP
 10
0.0
 20
0.0
 30
0.0
  9
$PUCSORGBOTTOM
 10
0.0
 20
0.0
 30
0.0
  9
$PUCSORGLEFT
 10
0.0
 20
0.0
 30
0.0
  9
$PUCSORGRIGHT
 10
0.0
 20
0.0
 30
0.0
  9
$PUCSORGFRONT
 10
0.0
 20
0.0
 30
0.0
  9
$PUCSORGBACK
 10
0.0
 20
0.0
 30
0.0
  9
$USERI1
 70
     0
  9
$USERI2
 70
     0
  9
$USERI3
 70
     0
  9
$USERI4
 70
     0
  9
$USERI5
 70
     0
  9
$USERR1
 40
0.0
  9
$USERR2
 40
0.0
  9
$USERR3
 40
8.0
  9
$USERR4
 40
0.0
  9
$USERR5
 40
1528.0
  9
$WORLDVIEW
 70
     0
  9
$SHADEDGE
 70
     3
  9
$SHADEDIF
 70
    70
  9
$TILEMODE
 70
     1
  9
$MAXACTVP
 70
    16
  9
$PINSBASE
 10
0.0
 20
0.0
 30
0.0
  9
$PLIMCHECK
 70
     0
  9
$PEXTMIN
 10
1.000000000000000E+20
 20
1.000000000000000E+20
 30
1.000000000000000E+20
  9
$PEXTMAX
 10
-1.000000000000000E+20
 20
-1.000000000000000E+20
 30
-1.000000000000000E+20
  9
$PLIMMIN
 10
0.0
 20
0.0
  9
$PLIMMAX
 10
12.0
 20
9.0
  9
$UNITMODE
 70
     0
  9
$VISRETAIN
 70
     0
  9
$PLINEGEN
 70
     0
  9
$PSLTSCALE
 70
     0
  9
$TREEDEPTH
 70
  3020
  9
$CMLSTYLE
  2
STANDARD
  9
$CMLJUST
 70
     0
  9
$CMLSCALE
 40
1.0
  9
$PROXYGRAPHICS
 70
     1
  9
$MEASUREMENT
 70
     0
  9
$CELWEIGHT
370
    -1
  9
$ENDCAPS
280
     0
  9
$JOINSTYLE
280
     0
  9
$LWDISPLAY
290
     0
  9
$INSUNITS
 70
     0
  9
$HYPERLINKBASE
  1

  9
$STYLESHEET
  1

  9
$XEDIT
290
     1
  9
$CEPSNTYPE
380
     0
  9
$PSTYLEMODE
290
     1
  9
$FINGERPRINTGUID
  2
{4C66E97A-BCBF-4ECA-BA0A-FE1E89EDF378}
  9
$VERSIONGUID
  2
{AC7B39CA-BF50-4AC2-B558-D9284D3AF2D2}
  9
$EXTNAMES
290
     1
  9
$PSVPSCALE
 40
0.0
  9
$OLESTARTUP
290
     0
  0
ENDSEC
  0
SECTION
  2
CLASSES
  0
CLASS
  1
DICTIONARYVAR
  2
AcDbDictionaryVar
  3
ObjectDBX Classes
 90
        0
280
     0
281
     0
  0
CLASS
  1
ACDBDICTIONARYWDFLT
  2
AcDbDictionaryWithDefault
  3
ObjectDBX Classes
 90
        0
280
     0
281
     0
  0
CLASS
  1
ACDBPLACEHOLDER
  2
AcDbPlaceHolder
  3
ObjectDBX Classes
 90
        0
280
     0
281
     0
  0
CLASS
  1
LAYOUT
  2
AcDbLayout
  3
ObjectDBX Classes
 90
        0
280
     0
281
     0
  0
CLASS
  1
MATERIAL
  2
AcDbMaterial
  3
ObjectDBX Classes
 90
     1024
280
     0
281
     0
  0
CLASS
  1
VISUALSTYLE
  2
AcDbVisualStyle
  3
ObjectDBX Classes
 90
     4095
280
     0
281
     0
  0
CLASS
  1
TABLESTYLE
  2
AcDbTableStyle
  3
ObjectDBX Classes
 90
     4095
280
     0
281
     0
  0
ENDSEC
  0
SECTION
  2
TABLES
  0
TABLE
  2
VPORT
  5
13
330
0
100
AcDbSymbolTable
 70
     1
  0
VPORT
  5
1517
330
13
100
AcDbSymbolTableRecord
100
AcDbViewportTableRecord
  2
*Active
 70
     0
 10
0.0
 20
0.0
 11
1.0
 21
1.0
 12
7347.995373753926
 22
-224.1448807518505
 13
0.0
 23
0.0
 14
2.0
 24
2.0
 15
0.0
 25
0.0
 16
0.0
 26
0.0
 36
1.0
 17
0.0
 27
0.0
 37
0.0
 40
41.30405417206044
 41
1.774011299435028
 42
50.0
 43
0.0
 44
0.0
 50
0.0
 51
0.0
 71
     0
 72
 10000
 73
     1
 74
     0
 75
     0
 76
     0
 77
     0
 78
     0
281
     0
 65
     1
110
0.0
120
0.0
130
0.0
111
1.0
121
0.0
131
0.0
112
0.0
122
1.0
132
0.0
 79
     0
146
0.0
  0
ENDTAB
  0
TABLE
  2
LTYPE
  5
E
330
0
100
AcDbSymbolTable
 70
     1
  0
LTYPE
  5
F
330
E
100
AcDbSymbolTableRecord
100
AcDbLinetypeTableRecord
  2
BYBLOCK
 70
     0
  3

 72
    65
 73
     0
 40
0.0
  0
LTYPE
  5
10
330
E
100
AcDbSymbolTableRecord
100
AcDbLinetypeTableRecord
  2
BYLAYER
 70
     0
  3

 72
    65
 73
     0
 40
0.0
  0
LTYPE
  5
5
330
E
100
AcDbSymbolTableRecord
100
AcDbLinetypeTableRecord
  2
CONTINUOUS
 70
     0
  3
Solid line
 72
    65
 73
     0
 40
0.0
  0
ENDTAB
  0
TABLE
  2
LAYER
  5
A
330
0
100
AcDbSymbolTable
 70
     4
  0
LAYER
  5
4
330
A
100
AcDbSymbolTableRecord
100
AcDbLayerTableRecord
  2
0
 70
     0
 62
     7
  6
CONTINUOUS
370
    -3
390
1388
  0
LAYER
  5
39
330
A
100
AcDbSymbolTableRecord
100
AcDbLayerTableRecord
  2
WALL
 70
     0
 62
     7
  6
CONTINUOUS
370
    -3
390
1388
  0
LAYER
  5
1B
330
A
100
AcDbSymbolTableRecord
100
AcDbLayerTableRecord
  2
ARNOTE
 70
     0
 62
     4
  6
CONTINUOUS
370
    -3
390
1388
  0
LAYER
  5
12BC
330
A
100
AcDbSymbolTableRecord
100
AcDbLayerTableRecord
  2
ADPDIM
 70
     0
 62
     3
  6
CONTINUOUS
370
    -3
390
1388
  0
ENDTAB
  0
TABLE
  2
STYLE
  5
B
330
0
100
AcDbSymbolTable
 70
     3
  0
STYLE
  5
C
330
B
100
AcDbSymbolTableRecord
100
AcDbTextStyleTableRecord
  2
STANDARD
 70
     0
 40
5.0
 41
1.199999999999999
 50
0.0
 71
     0
 42
5.0
  3
cityb___.ttf
  4

1001
ACAD
1000
CityBlueprint
1071
      514
  0
STYLE
  5
B18
330
B
100
AcDbSymbolTableRecord
100
AcDbTextStyleTableRecord
  2
ARCHS
 70
     0
 40
5.0
 41
0.8
 50
0.0
 71
     0
 42
5.0
  3
archs.shx
  4

  0
STYLE
  5
1391
330
B
100
AcDbSymbolTableRecord
100
AcDbTextStyleTableRecord
  2
ARIAL_WIDE
 70
     0
 40
0.0
 41
1.25
 50
0.0
 71
     0
 42
0.2
  3
ARIAL.TTF
  4

1001
ACAD
1000
Arial
1071
       34
  0
ENDTAB
  0
TABLE
  2
VIEW
  5
11
330
0
100
AcDbSymbolTable
 70
     0
  0
ENDTAB
  0
TABLE
  2
UCS
  5
12
330
0
100
AcDbSymbolTable
 70
     0
  0
ENDTAB
  0
TABLE
  2
APPID
  5
15
330
0
100
AcDbSymbolTable
 70
     3
  0
APPID
  5
D
330
15
100
AcDbSymbolTableRecord
100
AcDbRegAppTableRecord
  2
ACAD
 70
     0
  0
APPID
  5
C0E
330
15
100
AcDbSymbolTableRecord
100
AcDbRegAppTableRecord
  2
CONTENTTABDATA
 70
     0
  0
APPID
  5
C0F
330
15
100
AcDbSymbolTableRecord
100
AcDbRegAppTableRecord
  2
CONTENTCURRENTTAB
 70
     0
  0
ENDTAB
  0
TABLE
  2
DIMSTYLE
  5
16
330
0
100
AcDbSymbolTable
 70
     1
100
AcDbDimStyleTable
 71
     0
  0
DIMSTYLE
105
1D
330
16
100
AcDbSymbolTableRecord
100
AcDbDimStyleTableRecord
  2
LORI
 70
     0
 41
4.0
 42
4.0
 43
0.0
 44
4.0
 46
4.0
 73
     0
 74
     0
 77
     1
 78
     3
140
5.0
141
0.0625
147
1.0
173
     1
273
     4
276
     2
277
     4
279
     2
284
     3
285
     3
286
     3
340
B18
341
1E
343
1E
344
1E
  0
ENDTAB
  0
TABLE
  2
BLOCK_RECORD
  5
1
330
0
100
AcDbSymbolTable
 70
     1
  0
BLOCK_RECORD
  5
2
102
{ACAD_XDICTIONARY
360
13E8
102
}
330
1
100
AcDbSymbolTableRecord
100
AcDbBlockTableRecord
  2
*MODEL_SPACE
340
138B
  0
BLOCK_RECORD
  5
7
102
{ACAD_XDICTIONARY
360
13EA
102
}
330
1
100
AcDbSymbolTableRecord
100
AcDbBlockTableRecord
  2
*PAPER_SPACE
340
138C
  0
BLOCK_RECORD
  5
1E
330
1
100
AcDbSymbolTableRecord
100
AcDbBlockTableRecord
  2
_ARCHTICK
340
0
  0
ENDTAB
  0
ENDSEC
  0
SECTION
  2
BLOCKS
  0
BLOCK
  5
3
330
2
100
AcDbEntity
  8
0
100
AcDbBlockBegin
  2
*MODEL_SPACE
 70
     2
 10
0.0
 20
0.0
 30
0.0
  3
*MODEL_SPACE
  1

  0
ENDBLK
  5
6
330
2
100
AcDbEntity
  8
0
100
AcDbBlockEnd
  0
BLOCK
  5
8
330
7
100
AcDbEntity
 67
     1
  8
0
100
AcDbBlockBegin
  2
*PAPER_SPACE
 70
     0
 10
0.0
 20
0.0
 30
0.0
  3
*PAPER_SPACE
  1

  0
ENDBLK
  5
9
330
7
100
AcDbEntity
 67
     1
  8
0
100
AcDbBlockEnd
  0
BLOCK
  5
23
330
1E
100
AcDbEntity
  8
0
100
AcDbBlockBegin
  2
_ARCHTICK
 70
     0
 10
0.0
 20
0.0
 30
0.0
  3
_ARCHTICK
  1

  0
LWPOLYLINE
  5
1F
330
1E
100
AcDbEntity
  8
0
  6
ByBlock
 62
     0
100
AcDbPolyline
 90
        2
 70
     0
 43
0.15
 10
-0.5
 20
-0.5
 10
0.5
 20
0.5
  0
ENDBLK
  5
24
330
1E
100
AcDbEntity
  8
0
100
AcDbBlockEnd
  0
ENDSEC
  0
SECTION
  2
ENTITIES
  0
TEXT
  5
911
330
2
100
AcDbEntity
  8
ARNOTE
 48
0.25
100
AcDbText
 10
6797.355681886982
 20
320.6227969266074
 30
0.0
 40
5.0
  1

 41
1.199999999999999
100
AcDbText
  0
TEXT
  5
914
330
2
100
AcDbEntity
  8
ARNOTE
 48
0.25
100
AcDbText
 10
6797.355681886982
 20
296.7498205878776
 30
0.0
 40
5.0
  1

 41
1.199999999999999
100
AcDbText
  0
TEXT
  5
9C1
330
2
100
AcDbEntity
  8
ARNOTE
 48
0.25
100
AcDbText
 10
5924.352917162863
 20
189.567089263825
 30
0.0
 40
5.0
  1

 41
1.199999999999999
100
AcDbText
  0
TEXT
  5
1392
330
2
100
AcDbEntity
  8
ADPDIM
100
AcDbText
 10
7316.07987654352
 20
-239.0676194209638
 30
0.0
 40
0.625
  1
J U L I U S  B L U M  &  C O . ,  I N C .      ( 8 0 0 )  5 2 6 - 6 2 9 3        W W W . J U L I U S B L U M . C O M        P A R T  N o .  9 7 3
 41
1.25
  7
ARIAL_WIDE
 72
     1
 11
7348.253414231106
 21
-238.4426194209638
 31
0.0
100
AcDbText
 73
     3
  0
LINE
  5
1426
330
2
100
AcDbEntity
  8
WALL
100
AcDbLine
 10
7346.482403800656
 20
-228.0755490015534
 30
0.0
 11
7346.482403800656
 21
-218.8958615015533
 31
0.0
  0
LINE
  5
1427
330
2
100
AcDbEntity
  8
WALL
100
AcDbLine
 10
7345.99282046732
 20
-228.0755490015534
 30
0.0
 11
7345.99282046732
 21
-218.8958615015533
 31
0.0
  0
LINE
  5
1428
330
2
100
AcDbEntity
  8
WALL
100
AcDbLine
 10
7350.093080883988
 20
-228.0755490015534
 30
0.0
 11
7350.093080883988
 21
-218.8958615015533
 31
0.0
  0
LINE
  5
1429
330
2
100
AcDbEntity
  8
WALL
100
AcDbLine
 10
7350.582664217324
 20
-228.0755490015534
 30
0.0
 11
7350.582664217324
 21
-218.8958615015533
 31
0.0
  0
LINE
  5
142A
330
2
100
AcDbEntity
  8
WALL
100
AcDbLine
 10
7348.048159008993
 20
-237.5909525058803
 30
0.0
 11
7348.048159008993
 21
-237.0909525058802
 31
0.0
  0
LINE
  5
142B
330
2
100
AcDbEntity
  8
WALL
100
AcDbLine
 10
7348.537742342329
 20
-237.5909525058803
 30
0.0
 11
7348.537742342327
 21
-237.0909525058802
 31
0.0
  0
LINE
  5
142C
330
2
100
AcDbEntity
  8
WALL
100
AcDbLine
 10
7348.048159008993
 20
-237.5909525058803
 30
0.0
 11
7348.537742342327
 21
-237.5909525058802
 31
0.0
  0
LINE
  5
142D
330
2
100
AcDbEntity
  8
WALL
100
AcDbLine
 10
7348.048159008993
 20
-237.0909525058802
 30
0.0
 11
7348.537742342327
 21
-237.0909525058802
 31
0.0
  0
LINE
  5
142E
330
2
100
AcDbEntity
  8
WALL
100
AcDbLine
 10
7348.042950675661
 20
-236.5208615015533
 30
0.0
 11
7348.532534008994
 21
-236.5208615015533
 31
0.0
  0
LINE
  5
142F
330
2
100
AcDbEntity
  8
ADPDIM
  6
ByBlock
100
AcDbLine
 10
7348.042950675661
 20
-236.9286397996641
 30
0.0
 11
7348.54295067566
 21
-236.9286397996641
 31
0.0
  0
LINE
  5
1430
330
2
100
AcDbEntity
  8
ADPDIM
  6
ByBlock
100
AcDbLine
 10
7348.042950675661
 20
-237.0512892386526
 30
0.0
 11
7348.042950675661
 21
-236.5900392386526
 31
0.0
  0
LWPOLYLINE
  5
1431
330
2
100
AcDbEntity
  8
ADPDIM
100
AcDbPolyline
 90
        2
 70
     1
 43
0.025
 10
7348.030450675661
 20
-236.9286397996641
 42
1.0
 10
7348.05545067566
 20
-236.9286397996641
 42
1.0
  0
POINT
  5
1432
330
2
100
AcDbEntity
  8
ADPDIM
  6
ByBlock
100
AcDbPoint
 10
7348.54295067566
 20
-236.9286397996641
 30
0.0
  0
LWPOLYLINE
  5
1433
330
2
100
AcDbEntity
  8
ADPDIM
100
AcDbPolyline
 90
        2
 70
     1
 43
0.025
 10
7348.520034008995
 20
-236.9286397996641
 42
1.0
 10
7348.545034008996
 20
-236.9286397996641
 42
1.0
  0
LINE
  5
1434
330
2
100
AcDbEntity
  8
ADPDIM
  6
ByBlock
100
AcDbLine
 10
7348.532534008994
 20
-237.0512892386526
 30
0.0
 11
7348.532534008994
 21
-236.5900392386526
 31
0.0
  0
TEXT
  5
1435
330
2
100
AcDbEntity
  8
ADPDIM
100
AcDbText
 10
7349.22325342321
 20
-236.5000122453623
 30
0.0
 40
0.2
  1
"
100
AcDbText
  0
LINE
  5
1436
330
2
100
AcDbEntity
  8
ADPDIM
100
AcDbLine
 10
7348.54295067566
 20
-236.9286397996641
 30
0.0
 11
7349.174828877827
 21
-236.9286397996641
 31
0.0
  0
TEXT
  5
1437
330
2
100
AcDbEntity
  8
ADPDIM
100
AcDbText
 10
7348.801533596985
 20
-236.5123665887329
 30
0.0
 40
0.25
  1
1
100
AcDbText
  0
TEXT
  5
1438
330
2
100
AcDbEntity
  8
ADPDIM
100
AcDbText
 10
7349.005413708347
 20
-236.8492898730263
 30
0.0
 40
0.25
  1
2
100
AcDbText
  0
LINE
  5
1439
330
2
100
AcDbEntity
  8
ADPDIM
100
AcDbLine
 10
7348.787120636178
 20
-236.8508242909435
 30
0.0
 11
7349.107558386601
 21
-236.2958098265474
 31
0.0
  0
LINE
  5
143A
330
2
100
AcDbEntity
  8
WALL
100
AcDbLine
 10
7348.532534008994
 20
-236.5208615015533
 30
0.0
 11
7348.532534008994
 21
-232.454502723262
 31
0.0
  0
LINE
  5
143B
330
2
100
AcDbEntity
  8
WALL
100
AcDbLine
 10
7348.042950675661
 20
-236.5208615015533
 30
0.0
 11
7348.042950675659
 21
-232.454502723262
 31
0.0
  0
LINE
  5
143C
330
2
100
AcDbEntity
  8
WALL
100
AcDbLine
 10
7350.827455883991
 20
-228.5651323348868
 30
0.0
 11
7350.827455883991
 21
-228.0755490015534
 31
0.0
  0
ARC
  5
143D
330
2
100
AcDbEntity
  8
WALL
100
AcDbCircle
 10
7349.559841055209
 20
-229.224079164016
 30
0.0
 40
3.079253003024542
100
AcDbArc
 50
178.0322761138382
 51
245.5990671396297
  0
ARC
  5
143E
330
2
100
AcDbEntity
  8
WALL
100
AcDbCircle
 10
7349.559841055209
 20
-229.224079164016
 30
0.0
 40
2.914892883976923
100
AcDbArc
 50
222.3713567655723
 51
243.9990662226678
  0
ARC
  5
143F
330
2
100
AcDbEntity
  8
WALL
100
AcDbCircle
 10
7349.559841055209
 20
-229.224079164016
 30
0.0
 40
3.568836336357875
100
AcDbArc
 50
178.1722337573005
 51
244.8469433341497
  0
ARC
  5
1440
330
2
100
AcDbEntity
  8
WALL
100
AcDbCircle
 10
7347.944631721304
 20
-229.4067227934336
 30
0.0
 40
1.283680343557731
100
AcDbArc
 50
184.4411539294272
 51
255.4531617283434
  0
LINE
  5
1441
330
2
100
AcDbEntity
  8
WALL
100
AcDbLine
 10
7346.482403800656
 20
-229.118348362783
 30
0.0
 11
7346.482403800656
 21
-228.5651323348868
 31
0.0
  0
LINE
  5
1442
330
2
100
AcDbEntity
  8
WALL
100
AcDbLine
 10
7345.99282046732
 20
-229.1102506700948
 30
0.0
 11
7345.99282046732
 21
-228.5651323348868
 31
0.0
  0
LINE
  5
1443
330
2
100
AcDbEntity
  8
WALL
100
AcDbLine
 10
7345.748028800652
 20
-228.0755490015534
 30
0.0
 11
7346.727195467325
 21
-228.0755490015531
 31
0.0
  0
LINE
  5
1444
330
2
100
AcDbEntity
  8
WALL
100
AcDbLine
 10
7345.748028800652
 20
-228.5651323348868
 30
0.0
 11
7346.727195467325
 21
-228.5651323348868
 31
0.0
  0
LINE
  5
1445
330
2
100
AcDbEntity
  8
WALL
100
AcDbLine
 10
7346.727195467325
 20
-228.5651323348868
 30
0.0
 11
7346.727195467325
 21
-228.0755490015534
 31
0.0
  0
LINE
  5
1446
330
2
100
AcDbEntity
  8
WALL
100
AcDbLine
 10
7345.748028800652
 20
-228.5651323348868
 30
0.0
 11
7345.748028800652
 21
-228.0755490015534
 31
0.0
  0
ARC
  5
1447
330
2
100
AcDbEntity
  8
WALL
100
AcDbCircle
 10
7347.64384726168
 20
-230.7785761237195
 30
0.0
 40
0.0611979166666667
100
AcDbArc
 50
302.9711105016934
 51
27.8364909932072
  0
ARC
  5
1448
330
2
100
AcDbEntity
  8
WALL
100
AcDbCircle
 10
7347.606836814883
 20
-230.7084878009355
 30
0.0
 40
0.0611979166666667
100
AcDbArc
 50
27.83649099276859
 51
75.45316172818302
  0
LINE
  5
1449
330
2
100
AcDbEntity
  8
WALL
100
AcDbLine
 10
7347.697963585523
 20
-230.7499997611402
 30
0.0
 11
7347.660953138727
 21
-230.6799114383565
 31
0.0
  0
LINE
  5
144A
330
2
100
AcDbEntity
  8
WALL
100
AcDbLine
 10
7346.605993740819
 20
-228.5651323348868
 30
0.0
 11
7346.664805769259
 21
-229.5061247899734
 31
0.0
  0
ARC
  5
144B
330
2
100
AcDbEntity
  8
WALL
100
AcDbCircle
 10
7347.696475471798
 20
-231.1276400030594
 30
0.0
 40
0.2983486083762671
100
AcDbArc
 50
93.71350864399277
 51
190.5131370570989
  0
LINE
  5
144C
330
2
100
AcDbEntity
  8
WALL
100
AcDbLine
 10
7348.877521099122
 20
-230.7499997611402
 30
0.0
 11
7348.914531545919
 21
-230.6799114383565
 31
0.0
  0
ARC
  5
144D
330
2
100
AcDbEntity
  8
WALL
100
AcDbCircle
 10
7348.968647869762
 20
-230.7084878009355
 30
0.0
 40
0.0611979166666667
100
AcDbArc
 50
104.546838271817
 51
152.1635090072314
  0
ARC
  5
144E
330
2
100
AcDbEntity
  8
WALL
100
AcDbCircle
 10
7348.931637422964
 20
-230.7785761237195
 30
0.0
 40
0.0611979166666667
100
AcDbArc
 50
152.1635090067928
 51
237.0288894983066
  0
LINE
  5
144F
330
2
100
AcDbEntity
  8
WALL
100
AcDbLine
 10
7349.848289217321
 20
-228.5651323348868
 30
0.0
 11
7349.848289217321
 21
-228.0755490015534
 31
0.0
  0
LINE
  5
1450
330
2
100
AcDbEntity
  8
WALL
100
AcDbLine
 10
7350.827455883991
 20
-228.5651323348868
 30
0.0
 11
7349.848289217321
 21
-228.5651323348868
 31
0.0
  0
LINE
  5
1451
330
2
100
AcDbEntity
  8
WALL
100
AcDbLine
 10
7350.827455883991
 20
-228.0755490015534
 30
0.0
 11
7349.848289217321
 21
-228.0755490015531
 31
0.0
  0
LINE
  5
1452
330
2
100
AcDbEntity
  8
WALL
100
AcDbLine
 10
7350.093080883988
 20
-229.118348362783
 30
0.0
 11
7350.093080883988
 21
-228.5651323348868
 31
0.0
  0
ARC
  5
1453
330
2
100
AcDbEntity
  8
WALL
100
AcDbCircle
 10
7348.630852963349
 20
-229.4067227934336
 30
0.0
 40
1.283680343557731
100
AcDbArc
 50
284.5468382716567
 51
355.5588460705727
  0
ARC
  5
1454
330
2
100
AcDbEntity
  8
WALL
100
AcDbCircle
 10
7347.015643629436
 20
-229.224079164016
 30
0.0
 40
3.079253003024542
100
AcDbArc
 50
294.4009328603703
 51
1.967723886161837
  0
ARC
  5
1455
330
2
100
AcDbEntity
  8
WALL
100
AcDbCircle
 10
7347.015643629436
 20
-229.224079164016
 30
0.0
 40
3.568836336357875
100
AcDbArc
 50
295.1530566658503
 51
1.827766242699471
  0
LINE
  5
1456
330
2
100
AcDbEntity
  8
WALL
100
AcDbLine
 10
7349.969490943827
 20
-228.5651323348868
 30
0.0
 11
7349.910678915385
 21
-229.5061247899734
 31
0.0
  0
ARC
  5
1457
330
2
100
AcDbEntity
  8
WALL
100
AcDbCircle
 10
7347.01564362943
 20
-229.224079164016
 30
0.0
 40
2.914892883976923
100
AcDbArc
 50
296.0009337773321
 51
317.6286432344277
  0
ARC
  5
1458
330
2
100
AcDbEntity
  8
WALL
100
AcDbCircle
 10
7349.159455773777
 20
-231.1796842146226
 30
0.0
 40
0.0131138392857143
100
AcDbArc
 50
317.6286432344638
 51
349.4868629429346
  0
ARC
  5
1459
330
2
100
AcDbEntity
  8
WALL
100
AcDbCircle
 10
7348.879009212841
 20
-231.1276400030594
 30
0.0
 40
0.2983486083762671
100
AcDbArc
 50
349.486862942901
 51
86.28649135600722
  0
LINE
  5
145A
330
2
100
AcDbEntity
  8
WALL
100
AcDbLine
 10
7350.582664217324
 20
-229.1102506700948
 30
0.0
 11
7350.582664217324
 21
-228.5651323348868
 31
0.0
  0
LINE
  5
145B
330
2
100
AcDbEntity
  8
WALL
100
AcDbLine
 10
7350.827455883991
 20
-209.2265906682198
 30
0.0
 11
7350.827455883991
 21
-209.7161740015532
 31
0.0
  0
LINE
  5
145C
330
2
100
AcDbEntity
  8
WALL
100
AcDbLine
 10
7348.104148592324
 20
-201.2708615015533
 30
0.0
 11
7348.287742342328
 21
-201.2708615015533
 31
0.0
  0
ARC
  5
145D
330
2
100
AcDbEntity
  8
WALL
100
AcDbCircle
 10
7348.104148592324
 20
-201.3320594182199
 30
0.0
 40
0.0611979166666667
100
AcDbArc
 50
90.0
 51
180.0
  0
LINE
  5
145E
330
2
100
AcDbEntity
  8
WALL
100
AcDbLine
 10
7348.471336092321
 20
-201.2708615015533
 30
0.0
 11
7348.287742342328
 21
-201.2708615015533
 31
0.0
  0
ARC
  5
145F
330
2
100
AcDbEntity
  8
WALL
100
AcDbCircle
 10
7348.471336092321
 20
-201.3320594182199
 30
0.0
 40
0.0611979166666667
100
AcDbArc
 50
0.0
 51
90.0
  0
ARC
  5
1460
330
2
100
AcDbEntity
  8
WALL
100
AcDbCircle
 10
7349.559841055209
 20
-208.5676438390906
 30
0.0
 40
3.079253003024542
100
AcDbArc
 50
114.4009328603703
 51
181.9677238861618
  0
ARC
  5
1461
330
2
100
AcDbEntity
  8
WALL
100
AcDbCircle
 10
7349.559841055209
 20
-208.5676438390906
 30
0.0
 40
2.914892883976923
100
AcDbArc
 50
116.0009337773322
 51
137.6286432344277
  0
LINE
  5
1462
330
2
100
AcDbEntity
  8
WALL
100
AcDbLine
 10
7345.748028800652
 20
-209.2265906682198
 30
0.0
 11
7345.748028800652
 21
-209.7161740015532
 31
0.0
  0
LINE
  5
1463
330
2
100
AcDbEntity
  8
WALL
100
AcDbLine
 10
7346.727195467325
 20
-209.2265906682198
 30
0.0
 11
7346.727195467325
 21
-209.7161740015532
 31
0.0
  0
LINE
  5
1464
330
2
100
AcDbEntity
  8
WALL
100
AcDbLine
 10
7345.748028800652
 20
-209.2265906682198
 30
0.0
 11
7346.727195467325
 21
-209.2265906682198
 31
0.0
  0
LINE
  5
1465
330
2
100
AcDbEntity
  8
WALL
100
AcDbLine
 10
7345.748028800652
 20
-209.7161740015532
 30
0.0
 11
7346.727195467325
 21
-209.7161740015535
 31
0.0
  0
LINE
  5
1466
330
2
100
AcDbEntity
  8
WALL
100
AcDbLine
 10
7347.697963585523
 20
-207.0417232419664
 30
0.0
 11
7347.660953138727
 21
-207.1118115647501
 31
0.0
  0
ARC
  5
1467
330
2
100
AcDbEntity
  8
WALL
100
AcDbCircle
 10
7347.944631721304
 20
-208.385000209673
 30
0.0
 40
1.283680343557731
100
AcDbArc
 50
104.5468382716566
 51
175.5588460705727
  0
ARC
  5
1468
330
2
100
AcDbEntity
  8
WALL
100
AcDbCircle
 10
7349.559841055209
 20
-208.5676438390906
 30
0.0
 40
3.568836336357875
100
AcDbArc
 50
115.1530566658503
 51
181.8277662426994
  0
LINE
  5
1469
330
2
100
AcDbEntity
  8
WALL
100
AcDbLine
 10
7345.99282046732
 20
-208.6814723330117
 30
0.0
 11
7345.99282046732
 21
-209.2265906682198
 31
0.0
  0
LINE
  5
146A
330
2
100
AcDbEntity
  8
WALL
100
AcDbLine
 10
7346.482403800656
 20
-208.6733746403236
 30
0.0
 11
7346.482403800656
 21
-209.2265906682198
 31
0.0
  0
ARC
  5
146B
330
2
100
AcDbEntity
  8
WALL
100
AcDbCircle
 10
7347.64384726168
 20
-207.0131468793871
 30
0.0
 40
0.0611979166666667
100
AcDbArc
 50
332.1635090067928
 51
57.02888949830665
  0
ARC
  5
146C
330
2
100
AcDbEntity
  8
WALL
100
AcDbCircle
 10
7347.606836814883
 20
-207.0832352021711
 30
0.0
 40
0.0611979166666667
100
AcDbArc
 50
284.546838271817
 51
332.1635090072314
  0
ARC
  5
146D
330
2
100
AcDbEntity
  8
WALL
100
AcDbCircle
 10
7347.416028910862
 20
-206.612038788484
 30
0.0
 40
0.0131138392857143
100
AcDbArc
 50
137.6286432344637
 51
169.4868629429346
  0
ARC
  5
146E
330
2
100
AcDbEntity
  8
WALL
100
AcDbCircle
 10
7347.696475471798
 20
-206.6640830000472
 30
0.0
 40
0.2983486083762671
100
AcDbArc
 50
169.486862942901
 51
266.2864913560072
  0
ARC
  5
146F
330
2
100
AcDbEntity
  8
WALL
100
AcDbCircle
 10
7347.416028910862
 20
-206.612038788484
 30
0.0
 40
0.0131138392857143
100
AcDbArc
 50
137.6286432344637
 51
169.4868629429346
  0
LINE
  5
1470
330
2
100
AcDbEntity
  8
WALL
100
AcDbLine
 10
7346.605993740819
 20
-209.2265906682198
 30
0.0
 11
7346.664805769259
 21
-208.2855982131333
 31
0.0
  0
ARC
  5
1471
330
2
100
AcDbEntity
  8
WALL
100
AcDbCircle
 10
7347.015643629436
 20
-208.5676438390906
 30
0.0
 40
3.568836336357875
100
AcDbArc
 50
358.1722337573005
 51
64.84694333414971
  0
ARC
  5
1472
330
2
100
AcDbEntity
  8
WALL
100
AcDbCircle
 10
7347.015643629436
 20
-208.5676438390906
 30
0.0
 40
3.079253003024542
100
AcDbArc
 50
358.0322761138382
 51
65.5990671396297
  0
ARC
  5
1473
330
2
100
AcDbEntity
  8
WALL
100
AcDbCircle
 10
7348.630852963349
 20
-208.385000209673
 30
0.0
 40
1.283680343557731
100
AcDbArc
 50
4.441153929427267
 51
75.45316172834333
  0
LINE
  5
1474
330
2
100
AcDbEntity
  8
WALL
100
AcDbLine
 10
7350.093080883988
 20
-208.6733746403236
 30
0.0
 11
7350.093080883988
 21
-209.2265906682198
 31
0.0
  0
LINE
  5
1475
330
2
100
AcDbEntity
  8
WALL
100
AcDbLine
 10
7350.827455883991
 20
-209.7161740015532
 30
0.0
 11
7349.848289217321
 21
-209.7161740015535
 31
0.0
  0
LINE
  5
1476
330
2
100
AcDbEntity
  8
WALL
100
AcDbLine
 10
7350.827455883991
 20
-209.2265906682198
 30
0.0
 11
7349.848289217321
 21
-209.2265906682198
 31
0.0
  0
LINE
  5
1477
330
2
100
AcDbEntity
  8
WALL
100
AcDbLine
 10
7349.848289217321
 20
-209.2265906682198
 30
0.0
 11
7349.848289217321
 21
-209.7161740015532
 31
0.0
  0
ARC
  5
1478
330
2
100
AcDbEntity
  8
WALL
100
AcDbCircle
 10
7348.931637422964
 20
-207.0131468793871
 30
0.0
 40
0.0611979166666667
100
AcDbArc
 50
122.9711105016933
 51
207.8364909932072
  0
ARC
  5
1479
330
2
100
AcDbEntity
  8
WALL
100
AcDbCircle
 10
7348.968647869762
 20
-207.0832352021711
 30
0.0
 40
0.0611979166666667
100
AcDbArc
 50
207.8364909927686
 51
255.453161728183
  0
LINE
  5
147A
330
2
100
AcDbEntity
  8
WALL
100
AcDbLine
 10
7348.877521099122
 20
-207.0417232419664
 30
0.0
 11
7348.914531545919
 21
-207.1118115647501
 31
0.0
  0
ARC
  5
147B
330
2
100
AcDbEntity
  8
WALL
100
AcDbCircle
 10
7348.28774234232
 20
-205.9595628417147
 30
0.0
 40
0.0131138392857143
100
AcDbArc
 50
63.99906622289871
 51
116.0009337771013
  0
ARC
  5
147C
330
2
100
AcDbEntity
  8
WALL
100
AcDbCircle
 10
7348.879009212841
 20
-206.6640830000472
 30
0.0
 40
0.2983486083762671
100
AcDbArc
 50
273.7135086439928
 51
10.51313705709898
  0
ARC
  5
147D
330
2
100
AcDbEntity
  8
WALL
100
AcDbCircle
 10
7347.01564362943
 20
-208.5676438390906
 30
0.0
 40
2.914892883976923
100
AcDbArc
 50
42.37135676557232
 51
63.99906622266782
  0
ARC
  5
147E
330
2
100
AcDbEntity
  8
WALL
100
AcDbCircle
 10
7349.159455773777
 20
-206.612038788484
 30
0.0
 40
0.0131138392857143
100
AcDbArc
 50
10.51313705706536
 51
42.37135676553623
  0
LINE
  5
147F
330
2
100
AcDbEntity
  8
WALL
100
AcDbLine
 10
7349.969490943827
 20
-209.2265906682198
 30
0.0
 11
7349.910678915385
 21
-208.2855982131333
 31
0.0
  0
LINE
  5
1480
330
2
100
AcDbEntity
  8
WALL
100
AcDbLine
 10
7350.582664217324
 20
-208.6814723330117
 30
0.0
 11
7350.582664217324
 21
-209.2265906682198
 31
0.0
  0
LINE
  5
1481
330
2
100
AcDbEntity
  8
WALL
100
AcDbLine
 10
7345.99282046732
 20
-209.7161740015532
 30
0.0
 11
7345.99282046732
 21
-218.8958615015533
 31
0.0
  0
LINE
  5
1482
330
2
100
AcDbEntity
  8
WALL
100
AcDbLine
 10
7346.482403800656
 20
-209.7161740015532
 30
0.0
 11
7346.482403800656
 21
-218.8958615015533
 31
0.0
  0
LINE
  5
1483
330
2
100
AcDbEntity
  8
WALL
100
AcDbLine
 10
7350.093080883988
 20
-209.7161740015532
 30
0.0
 11
7350.093080883988
 21
-218.8958615015533
 31
0.0
  0
LINE
  5
1484
330
2
100
AcDbEntity
  8
WALL
100
AcDbLine
 10
7350.582664217324
 20
-209.7161740015532
 30
0.0
 11
7350.582664217324
 21
-218.8958615015533
 31
0.0
  0
LINE
  5
1485
330
2
100
AcDbEntity
  8
WALL
100
AcDbLine
 10
7348.042950675659
 20
-201.3320594182199
 30
0.0
 11
7348.042950675659
 21
-205.3372202798446
 31
0.0
  0
LINE
  5
1486
330
2
100
AcDbEntity
  8
WALL
100
AcDbLine
 10
7348.532534008994
 20
-201.3320594182199
 30
0.0
 11
7348.532534008994
 21
-205.3372202798446
 31
0.0
  0
ENDSEC
  0
SECTION
  2
OBJECTS
  0
DICTIONARY
  5
1A
330
0
100
AcDbDictionary
281
     1
  3
ACAD_COLOR
350
1559
  3
ACAD_GROUP
350
18
  3
ACAD_LAYOUT
350
1389
  3
ACAD_MATERIAL
350
1544
  3
ACAD_MLINESTYLE
350
19
  3
ACAD_PLOTSETTINGS
350
138A
  3
ACAD_PLOTSTYLENAME
350
1387
  3
ACAD_TABLESTYLE
350
155A
  3
ACAD_VISUALSTYLE
350
1548
  3
AcDbVariableDictionary
350
13F2
  3
CONTENTDICTIONARY
350
C0D
  3
DWGPROPS
350
157C
  0
DICTIONARY
  5
13E8
330
2
100
AcDbDictionary
280
     1
281
     1
  3
ACAD_LAYOUTSELFREF
360
153B
  0
DICTIONARY
  5
13EA
330
7
100
AcDbDictionary
280
     1
281
     1
  3
ACAD_LAYOUTSELFREF
360
153C
  0
DICTIONARY
  5
1559
102
{ACAD_REACTORS
330
1A
102
}
330
1A
100
AcDbDictionary
281
     1
  0
DICTIONARY
  5
18
102
{ACAD_REACTORS
330
1A
102
}
330
1A
100
AcDbDictionary
281
     1
  0
DICTIONARY
  5
1389
102
{ACAD_REACTORS
330
1A
102
}
330
1A
100
AcDbDictionary
281
     1
  3
Layout1
350
138C
  3
Model
350
138B
  0
DICTIONARY
  5
1544
102
{ACAD_REACTORS
330
1A
102
}
330
1A
100
AcDbDictionary
281
     1
  3
ByBlock
350
1546
  3
ByLayer
350
1545
  3
Global
350
1547
  0
DICTIONARY
  5
19
102
{ACAD_REACTORS
330
1A
102
}
330
1A
100
AcDbDictionary
281
     1
  3
STANDARD
350
1C
  0
DICTIONARY
  5
138A
102
{ACAD_REACTORS
330
1A
102
}
330
1A
100
AcDbDictionary
281
     1
  0
ACDBDICTIONARYWDFLT
  5
1387
102
{ACAD_REACTORS
330
1A
102
}
330
1A
100
AcDbDictionary
281
     1
  3
Normal
350
1388
100
AcDbDictionaryWithDefault
340
1388
  0
DICTIONARY
  5
155A
102
{ACAD_REACTORS
330
1A
102
}
330
1A
100
AcDbDictionary
281
     1
  3
Standard
350
155B
  0
DICTIONARY
  5
1548
102
{ACAD_REACTORS
330
1A
102
}
330
1A
100
AcDbDictionary
281
     1
  3
2dWireframe
350
154E
  3
3D Hidden
350
1550
  3
3dWireframe
350
154F
  3
Basic
350
154D
  3
Brighten
350
1554
  3
ColorChange
350
1558
  3
Conceptual
350
1551
  3
Dim
350
1553
  3
Facepattern
350
1557
  3
Flat
350
1549
  3
FlatWithEdges
350
154A
  3
Gouraud
350
154B
  3
GouraudWithEdges
350
154C
  3
Linepattern
350
1556
  3
Realistic
350
1552
  3
Thicken
350
1555
  0
DICTIONARY
  5
13F2
102
{ACAD_REACTORS
330
1A
102
}
330
1A
100
AcDbDictionary
281
     1
  3
CTABLESTYLE
350
1579
  3
DIMASSOC
350
13F3
  3
INDEXCTL
350
157B
  3
SORTENTS
350
157A
  0
DICTIONARY
  5
C0D
102
{ACAD_REACTORS
330
1A
102
}
330
1A
100
AcDbDictionary
281
     1
  0
XRECORD
  5
157C
102
{ACAD_REACTORS
330
1A
102
}
330
1A
100
AcDbXrecord
280
     1
  1
DWGPROPS COOKIE
  2

  3

  4

  6

  7

  8
Yu Hu
  9

300
=
301
=
302
=
303
=
304
=
305
=
306
=
307
=
308
=
309
=
 40
1.271329143518518
 41
2450873.520156481
 42
2453959.006007361
  1

 90
        0
  0
XRECORD
  5
153B
102
{ACAD_REACTORS
330
13E8
102
}
330
13E8
100
AcDbXrecord
280
     1
340
2
  0
XRECORD
  5
153C
102
{ACAD_REACTORS
330
13EA
102
}
330
13EA
100
AcDbXrecord
280
     1
340
7
  0
LAYOUT
  5
138C
102
{ACAD_XDICTIONARY
360
157F
102
}
102
{ACAD_REACTORS
330
1389
102
}
330
1389
100
AcDbPlotSettings
  1

  2
Fax
  4

  6

 40
0.0
 41
0.0
 42
0.0
 43
0.0
 44
0.0
 45
0.0
 46
0.0
 47
0.0
 48
0.0
 49
0.0
140
0.0
141
0.0
142
1.0
143
1.0
 70
   688
 72
     0
 73
     0
 74
     5
  7
Default R14 pen assignments.ctb
 75
    16
147
1.0
148
0.0
149
0.0
100
AcDbLayout
  1
Layout1
 70
     0
 71
     1
 10
0.0
 20
0.0
 11
12.0
 21
9.0
 12
0.0
 22
0.0
 32
0.0
 14
1.000000000000000E+20
 24
1.000000000000000E+20
 34
1.000000000000000E+20
 15
-1.000000000000000E+20
 25
-1.000000000000000E+20
 35
-1.000000000000000E+20
146
0.0
 13
0.0
 23
0.0
 33
0.0
 16
1.0
 26
0.0
 36
0.0
 17
0.0
 27
1.0
 37
0.0
 76
     0
330
7
  0
LAYOUT
  5
138B
102
{ACAD_XDICTIONARY
360
157D
102
}
102
{ACAD_REACTORS
330
1389
102
}
330
1389
100
AcDbPlotSettings
  1

  2
Fax
  4

  6

 40
0.0
 41
0.0
 42
0.0
 43
0.0
 44
0.0
 45
0.0
 46
0.0
 47
0.0
 48
0.0
 49
0.0
140
0.0
141
0.0
142
1.0
143
1.0
 70
  1712
 72
     0
 73
     0
 74
     0
  7
Default R14 pen assignments.ctb
 75
     0
147
1.0
148
0.0
149
0.0
100
AcDbLayout
  1
Model
 70
     1
 71
     0
 10
0.0
 20
0.0
 11
12.0
 21
9.0
 12
0.0
 22
0.0
 32
0.0
 14
0.0
 24
0.0
 34
0.0
 15
0.0
 25
0.0
 35
0.0
146
0.0
 13
0.0
 23
0.0
 33
0.0
 16
1.0
 26
0.0
 36
0.0
 17
0.0
 27
1.0
 37
0.0
 76
     0
330
2
331
1517
  0
MATERIAL
  5
1546
102
{ACAD_XDICTIONARY
360
1583
102
}
102
{ACAD_REACTORS
330
1544
102
}
330
1544
100
AcDbMaterial
  1
ByBlock
  0
MATERIAL
  5
1545
102
{ACAD_XDICTIONARY
360
1581
102
}
102
{ACAD_REACTORS
330
1544
102
}
330
1544
100
AcDbMaterial
  1
ByLayer
  0
MATERIAL
  5
1547
102
{ACAD_XDICTIONARY
360
1585
102
}
102
{ACAD_REACTORS
330
1544
102
}
330
1544
100
AcDbMaterial
  1
Global
  0
MLINESTYLE
  5
1C
102
{ACAD_REACTORS
330
19
102
}
330
19
100
AcDbMlineStyle
  2
STANDARD
 70
     0
  3

 62
   256
 51
90.0
 52
90.0
 71
     2
 49
0.5
 62
   256
  6
BYLAYER
 49
-0.5
 62
   256
  6
BYLAYER
  0
ACDBPLACEHOLDER
  5
1388
102
{ACAD_REACTORS
330
1387
102
}
330
1387
  0
TABLESTYLE
  5
155B
102
{ACAD_XDICTIONARY
360
1587
102
}
102
{ACAD_REACTORS
330
155A
102
}
330
155A
100
AcDbTableStyle
  3
Standard
 70
     0
 71
     0
 40
0.06
 41
0.06
280
     0
281
     0
  7
STANDARD
140
0.18
170
     2
 62
     0
 63
     7
283
     0
274
    -2
284
     1
 64
     0
275
    -2
285
     1
 65
     0
276
    -2
286
     1
 66
     0
277
    -2
287
     1
 67
     0
278
    -2
288
     1
 68
     0
279
    -2
289
     1
 69
     0
  7
STANDARD
140
0.25
170
     5
 62
     0
 63
     7
283
     0
274
    -2
284
     1
 64
     0
275
    -2
285
     1
 65
     0
276
    -2
286
     1
 66
     0
277
    -2
287
     1
 67
     0
278
    -2
288
     1
 68
     0
279
    -2
289
     1
 69
     0
  7
STANDARD
140
0.18
170
     5
 62
     0
 63
     7
283
     0
274
    -2
284
     1
 64
     0
275
    -2
285
     1
 65
     0
276
    -2
286
     1
 66
     0
277
    -2
287
     1
 67
     0
278
    -2
288
     1
 68
     0
279
    -2
289
     1
 69
     0
  0
VISUALSTYLE
  5
154E
102
{ACAD_REACTORS
330
1548
102
}
330
1548
100
AcDbVisualStyle
  2
2dWireframe
 70
     4
 71
     0
 72
     2
 73
     0
 90
        0
 40
-0.6
 41
-30.0
 62
     5
 63
     7
 74
     1
 91
        4
 64
     7
 65
   257
 75
     1
175
     1
 42
1.0
 92
        0
 66
   257
 43
1.0
 76
     1
 77
     6
 78
     2
 67
     7
 79
     5
170
     0
171
     0
290
     0
174
     0
 93
        1
 44
0.0
173
     0
291
     0
 45
0.0
1001
ACAD
1000
AcDbSavedByObjectVersion
1070
     0
  0
VISUALSTYLE
  5
1550
102
{ACAD_REACTORS
330
1548
102
}
330
1548
100
AcDbVisualStyle
  2
3D Hidden
 70
     6
 71
     1
 72
     2
 73
     2
 90
        0
 40
-0.6
 41
-30.0
 62
     5
 63
     7
 74
     2
 91
        2
 64
     7
 65
   257
 75
     2
175
     1
 42
40.0
 92
        0
 66
   257
 43
1.0
 76
     1
 77
     6
 78
     2
 67
     7
 79
     3
170
     0
171
     0
290
     0
174
     0
 93
        1
 44
0.0
173
     0
291
     0
 45
0.0
1001
ACAD
1000
AcDbSavedByObjectVersion
1070
     0
  0
VISUALSTYLE
  5
154F
102
{ACAD_REACTORS
330
1548
102
}
330
1548
100
AcDbVisualStyle
  2
3dWireframe
 70
     5
 71
     0
 72
     2
 73
     0
 90
        0
 40
-0.6
 41
-30.0
 62
     5
 63
     7
 74
     1
 91
        4
 64
     7
 65
   257
 75
     1
175
     1
 42
1.0
 92
        0
 66
   257
 43
1.0
 76
     1
 77
     6
 78
     2
 67
     7
 79
     5
170
     0
171
     0
290
     0
174
     0
 93
        1
 44
0.0
173
     0
291
     0
 45
0.0
1001
ACAD
1000
AcDbSavedByObjectVersion
1070
     0
  0
VISUALSTYLE
  5
154D
102
{ACAD_REACTORS
330
1548
102
}
330
1548
100
AcDbVisualStyle
  2
Basic
 70
     7
 71
     1
 72
     0
 73
     1
 90
        0
 40
-0.6
 41
-30.0
 62
     5
 63
     7
 74
     0
 91
        4
 64
     7
 65
   257
 75
     1
175
     1
 42
1.0
 92
        8
 66
     7
 43
1.0
 76
     1
 77
     6
 78
     2
 67
     7
 79
     5
170
     0
171
     0
290
     0
174
     0
 93
        1
 44
0.0
173
     0
291
     1
 45
0.0
1001
ACAD
1000
AcDbSavedByObjectVersion
1070
     0
  0
VISUALSTYLE
  5
1554
102
{ACAD_REACTORS
330
1548
102
}
330
1548
100
AcDbVisualStyle
  2
Brighten
 70
    12
 71
     2
 72
     2
 73
     0
 90
        0
 40
-0.6
 41
-30.0
 62
     5
 63
     7
 74
     1
 91
        4
 64
     7
 65
   257
 75
     1
175
     1
 42
1.0
 92
        8
 66
     7
 43
1.0
 76
     1
 77
     6
 78
     2
 67
     7
 79
     5
170
     0
171
     0
290
     0
174
     0
 93
        1
 44
50.0
173
     0
291
     1
 45
0.0
1001
ACAD
1000
AcDbSavedByObjectVersion
1070
     0
  0
VISUALSTYLE
  5
1558
102
{ACAD_REACTORS
330
1548
102
}
330
1548
100
AcDbVisualStyle
  2
ColorChange
 70
    16
 71
     2
 72
     2
 73
     3
 90
        0
 40
-0.6
 41
-30.0
 62
     5
 63
     8
 74
     1
 91
        4
 64
     7
 65
   257
 75
     1
175
     1
 42
1.0
 92
        8
 66
     8
 43
1.0
 76
     1
 77
     6
 78
     2
 67
     7
 79
     5
170
     0
171
     0
290
     0
174
     0
 93
        1
 44
0.0
173
     0
291
     1
 45
0.0
1001
ACAD
1000
AcDbSavedByObjectVersion
1070
     0
  0
VISUALSTYLE
  5
1551
102
{ACAD_REACTORS
330
1548
102
}
330
1548
100
AcDbVisualStyle
  2
Conceptual
 70
     9
 71
     3
 72
     2
 73
     0
 90
        0
 40
-0.6
 41
-30.0
 62
     5
 63
     7
 74
     2
 91
        2
 64
     7
 65
   257
 75
     1
175
     1
 42
40.0
 92
        8
 66
     7
 43
1.0
 76
     1
 77
     6
 78
     2
 67
     7
 79
     3
170
     0
171
     0
290
     0
174
     0
 93
        1
 44
0.0
173
     0
291
     0
 45
0.0
1001
ACAD
1000
AcDbSavedByObjectVersion
1070
     0
  0
VISUALSTYLE
  5
1553
102
{ACAD_REACTORS
330
1548
102
}
330
1548
100
AcDbVisualStyle
  2
Dim
 70
    11
 71
     2
 72
     2
 73
     0
 90
        0
 40
-0.6
 41
-30.0
 62
     5
 63
     7
 74
     1
 91
        4
 64
     7
 65
   257
 75
     1
175
     1
 42
1.0
 92
        8
 66
     7
 43
1.0
 76
     1
 77
     6
 78
     2
 67
     7
 79
     5
170
     0
171
     0
290
     0
174
     0
 93
        1
 44
-50.0
173
     0
291
     1
 45
0.0
1001
ACAD
1000
AcDbSavedByObjectVersion
1070
     0
  0
VISUALSTYLE
  5
1557
102
{ACAD_REACTORS
330
1548
102
}
330
1548
100
AcDbVisualStyle
  2
Facepattern
 70
    15
 71
     2
 72
     2
 73
     0
 90
        0
 40
-0.6
 41
-30.0
 62
     5
 63
     7
 74
     1
 91
        4
 64
     7
 65
   257
 75
     1
175
     1
 42
1.0
 92
        8
 66
     7
 43
1.0
 76
     1
 77
     6
 78
     2
 67
     7
 79
     5
170
     0
171
     0
290
     0
174
     0
 93
        1
 44
0.0
173
     0
291
     1
 45
0.0
1001
ACAD
1000
AcDbSavedByObjectVersion
1070
     0
  0
VISUALSTYLE
  5
1549
102
{ACAD_REACTORS
330
1548
102
}
330
1548
100
AcDbVisualStyle
  2
Flat
 70
     0
 71
     2
 72
     1
 73
     1
 90
        2
 40
-0.6
 41
30.0
 62
     5
 63
     7
 74
     0
 91
        4
 64
     7
 65
   257
 75
     1
175
     1
 42
1.0
 92
        8
 66
     7
 43
1.0
 76
     1
 77
     6
 78
     2
 67
     7
 79
     5
170
     0
171
     0
290
     0
174
     0
 93
       13
 44
0.0
173
     0
291
     1
 45
0.0
1001
ACAD
1000
AcDbSavedByObjectVersion
1070
     0
  0
VISUALSTYLE
  5
154A
102
{ACAD_REACTORS
330
1548
102
}
330
1548
100
AcDbVisualStyle
  2
FlatWithEdges
 70
     1
 71
     2
 72
     1
 73
     1
 90
        2
 40
-0.6
 41
30.0
 62
     5
 63
     7
 74
     1
 91
        4
 64
     7
 65
   257
 75
     1
175
     1
 42
1.0
 92
        0
 66
   257
 43
1.0
 76
     1
 77
     6
 78
     2
 67
     7
 79
     5
170
     0
171
     0
290
     0
174
     0
 93
       13
 44
0.0
173
     0
291
     1
 45
0.0
1001
ACAD
1000
AcDbSavedByObjectVersion
1070
     0
  0
VISUALSTYLE
  5
154B
102
{ACAD_REACTORS
330
1548
102
}
330
1548
100
AcDbVisualStyle
  2
Gouraud
 70
     2
 71
     2
 72
     2
 73
     1
 90
        2
 40
-0.6
 41
30.0
 62
     5
 63
     7
 74
     0
 91
        4
 64
     7
 65
   257
 75
     1
175
     1
 42
1.0
 92
        0
 66
     7
 43
1.0
 76
     1
 77
     6
 78
     2
 67
     7
 79
     5
170
     0
171
     0
290
     0
174
     0
 93
       13
 44
0.0
173
     0
291
     1
 45
0.0
1001
ACAD
1000
AcDbSavedByObjectVersion
1070
     0
  0
VISUALSTYLE
  5
154C
102
{ACAD_REACTORS
330
1548
102
}
330
1548
100
AcDbVisualStyle
  2
GouraudWithEdges
 70
     3
 71
     2
 72
     2
 73
     1
 90
        2
 40
-0.6
 41
30.0
 62
     5
 63
     7
 74
     1
 91
        4
 64
     7
 65
   257
 75
     1
175
     1
 42
1.0
 92
        0
 66
   257
 43
1.0
 76
     1
 77
     6
 78
     2
 67
     7
 79
     5
170
     0
171
     0
290
     0
174
     0
 93
       13
 44
0.0
173
     0
291
     1
 45
0.0
1001
ACAD
1000
AcDbSavedByObjectVersion
1070
     0
  0
VISUALSTYLE
  5
1556
102
{ACAD_REACTORS
330
1548
102
}
330
1548
100
AcDbVisualStyle
  2
Linepattern
 70
    14
 71
     2
 72
     2
 73
     0
 90
        0
 40
-0.6
 41
-30.0
 62
     5
 63
     7
 74
     1
 91
        4
 64
     7
 65
   257
 75
     7
175
     7
 42
1.0
 92
        8
 66
     7
 43
1.0
 76
     1
 77
     6
 78
     2
 67
     7
 79
     5
170
     0
171
     0
290
     0
174
     0
 93
        1
 44
0.0
173
     0
291
     1
 45
0.0
1001
ACAD
1000
AcDbSavedByObjectVersion
1070
     0
  0
VISUALSTYLE
  5
1552
102
{ACAD_REACTORS
330
1548
102
}
330
1548
100
AcDbVisualStyle
  2
Realistic
 70
     8
 71
     2
 72
     2
 73
     0
 90
        0
 40
-0.6
 41
-30.0
 62
     5
 63
     7
 74
     1
 91
        0
 64
     7
 65
   257
 75
     1
175
     1
 42
1.0
 92
        8
 66
     8
 43
1.0
 76
     1
 77
     6
 78
     2
 67
     7
 79
     5
170
     0
171
     0
290
     0
174
     0
 93
       13
 44
0.0
173
     0
291
     0
 45
0.0
1001
ACAD
1000
AcDbSavedByObjectVersion
1070
     0
  0
VISUALSTYLE
  5
1555
102
{ACAD_REACTORS
330
1548
102
}
330
1548
100
AcDbVisualStyle
  2
Thicken
 70
    13
 71
     2
 72
     2
 73
     0
 90
        0
 40
-0.6
 41
-30.0
 62
     5
 63
     7
 74
     1
 91
        4
 64
     7
 65
   257
 75
     1
175
     1
 42
1.0
 92
       12
 66
     7
 43
1.0
 76
     1
 77
     6
 78
     2
 67
     7
 79
     5
170
     0
171
     0
290
     0
174
     0
 93
        1
 44
0.0
173
     0
291
     1
 45
0.0
1001
ACAD
1000
AcDbSavedByObjectVersion
1070
     0
  0
DICTIONARYVAR
  5
1579
102
{ACAD_REACTORS
330
13F2
102
}
330
13F2
100
DictionaryVariables
280
     0
  1
STANDARD
  0
DICTIONARYVAR
  5
13F3
102
{ACAD_REACTORS
330
13F2
102
}
330
13F2
100
DictionaryVariables
280
     0
  1
1
  0
DICTIONARYVAR
  5
157B
102
{ACAD_REACTORS
330
13F2
102
}
330
13F2
100
DictionaryVariables
280
     0
  1
0
  0
DICTIONARYVAR
  5
157A
102
{ACAD_REACTORS
330
13F2
102
}
330
13F2
100
DictionaryVariables
280
     0
  1
127
  0
DICTIONARY
  5
157F
330
138C
100
AcDbDictionary
280
     1
281
     1
  3
ACAD_XREC_ROUNDTRIP
360
1580
  0
DICTIONARY
  5
157D
330
138B
100
AcDbDictionary
280
     1
281
     1
  3
ACAD_XREC_ROUNDTRIP
360
157E
  0
DICTIONARY
  5
1583
330
1546
100
AcDbDictionary
280
     1
281
     1
  3
ACAD_XREC_ROUNDTRIP
360
1584
  0
DICTIONARY
  5
1581
330
1545
100
AcDbDictionary
280
     1
281
     1
  3
ACAD_XREC_ROUNDTRIP
360
1582
  0
DICTIONARY
  5
1585
330
1547
100
AcDbDictionary
280
     1
281
     1
  3
ACAD_XREC_ROUNDTRIP
360
1586
  0
DICTIONARY
  5
1587
330
155B
100
AcDbDictionary
280
     1
281
     1
  3
ACAD_XREC_ROUNDTRIP
360
1588
  0
XRECORD
  5
1580
102
{ACAD_REACTORS
330
157F
102
}
330
157F
100
AcDbXrecord
280
     1
102
SHADEPLOT
 70
     0
102
SHADEPLOTRESLEVEL
 70
     2
102
SHADEPLOTCUSTOMDPI
 70
   300
  0
XRECORD
  5
157E
102
{ACAD_REACTORS
330
157D
102
}
330
157D
100
AcDbXrecord
280
     1
102
SHADEPLOT
 70
     0
102
SHADEPLOTRESLEVEL
 70
     2
102
SHADEPLOTCUSTOMDPI
 70
   300
  0
XRECORD
  5
1584
102
{ACAD_REACTORS
330
1583
102
}
330
1583
100
AcDbXrecord
280
     1
102
MATERIAL
148
0.0
149
0.0
149
0.0
 93
        0
 94
       63
282
     0
 72
     1
 77
     1
171
     1
175
     1
179
     1
273
     0
  0
XRECORD
  5
1582
102
{ACAD_REACTORS
330
1581
102
}
330
1581
100
AcDbXrecord
280
     1
102
MATERIAL
148
0.0
149
0.0
149
0.0
 93
        0
 94
       63
282
     0
 72
     1
 77
     1
171
     1
175
     1
179
     1
273
     0
  0
XRECORD
  5
1586
102
{ACAD_REACTORS
330
1585
102
}
330
1585
100
AcDbXrecord
280
     1
102
MATERIAL
148
0.0
149
0.0
149
0.0
 93
        0
 94
       63
282
     0
 72
     1
 77
     1
171
     1
175
     1
179
     1
273
     0
  0
XRECORD
  5
1588
102
{ACAD_REACTORS
330
1587
102
}
330
1587
100
AcDbXrecord
280
     1
102
ACAD_ROUNDTRIP_PRE2007_TABLESTYLE
 90
      512
 91
        0
  1

 92
      512
 93
        0
  2

 94
      512
 95
        0
  3

  0
ENDSEC
  0
EOF
