  0
SECTION
  2
HEADER
  9
$ACADVER
  1
AC1014
  9
$ACADMAINTVER
 70
     9
  9
$DWGCODEPAGE
  3
ANSI_1252
  9
$INSBASE
 10
0.0
 20
0.0
 30
0.0
  9
$EXTMIN
 10
43.78297505971906
 20
3.250148123188723
 30
0.0
  9
$EXTMAX
 10
56.65239013475317
 20
7.849116572728261
 30
0.0
  9
$LIMMIN
 10
0.0
 20
0.0
  9
$LIMMAX
 10
0.0
 20
0.0
  9
$ORTHOMODE
 70
     1
  9
$REGENMODE
 70
     1
  9
$FILLMODE
 70
     1
  9
$QTEXTMODE
 70
     0
  9
$MIRRTEXT
 70
     1
  9
$DRAGMODE
 70
     0
  9
$LTSCALE
 40
1.0
  9
$OSMODE
 70
    37
  9
$ATTMODE
 70
     1
  9
$TEXTSIZE
 40
0.0
  9
$TRACEWID
 40
0.05
  9
$TEXTSTYLE
  7
STANDARD
  9
$CLAYER
  8
0
  9
$CELTYPE
  6
CONTINUOUS
  9
$CECOLOR
 62
   256
  9
$CELTSCALE
 40
1.0
  9
$DELOBJ
 70
     1
  9
$DISPSILH
 70
     0
  9
$DIMSCALE
 40
1.0
  9
$DIMASZ
 40
0.18
  9
$DIMEXO
 40
0.0625
  9
$DIMDLI
 40
0.38
  9
$DIMRND
 40
0.0
  9
$DIMDLE
 40
0.0
  9
$DIMEXE
 40
0.18
  9
$DIMTP
 40
0.0
  9
$DIMTM
 40
0.0
  9
$DIMTXT
 40
0.18
  9
$DIMCEN
 40
0.09
  9
$DIMTSZ
 40
0.0
  9
$DIMTOL
 70
     0
  9
$DIMLIM
 70
     0
  9
$DIMTIH
 70
     1
  9
$DIMTOH
 70
     1
  9
$DIMSE1
 70
     0
  9
$DIMSE2
 70
     0
  9
$DIMTAD
 70
     0
  9
$DIMZIN
 70
     0
  9
$DIMBLK
  1

  9
$DIMASO
 70
     1
  9
$DIMSHO
 70
     1
  9
$DIMPOST
  1

  9
$DIMAPOST
  1

  9
$DIMALT
 70
     0
  9
$DIMALTD
 70
     2
  9
$DIMALTF
 40
25.4
  9
$DIMLFAC
 40
1.0
  9
$DIMTOFL
 70
     0
  9
$DIMTVP
 40
0.0
  9
$DIMTIX
 70
     0
  9
$DIMSOXD
 70
     0
  9
$DIMSAH
 70
     0
  9
$DIMBLK1
  1

  9
$DIMBLK2
  1

  9
$DIMSTYLE
  2
STANDARD
  9
$DIMCLRD
 70
     0
  9
$DIMCLRE
 70
     0
  9
$DIMCLRT
 70
     0
  9
$DIMTFAC
 40
1.0
  9
$DIMGAP
 40
0.09
  9
$DIMJUST
 70
     0
  9
$DIMSD1
 70
     0
  9
$DIMSD2
 70
     0
  9
$DIMTOLJ
 70
     1
  9
$DIMTZIN
 70
     0
  9
$DIMALTZ
 70
     0
  9
$DIMALTTZ
 70
     0
  9
$DIMFIT
 70
     3
  9
$DIMUPT
 70
     0
  9
$DIMUNIT
 70
     2
  9
$DIMDEC
 70
     4
  9
$DIMTDEC
 70
     4
  9
$DIMALTU
 70
     2
  9
$DIMALTTD
 70
     2
  9
$DIMTXSTY
  7
STANDARD
  9
$DIMAUNIT
 70
     0
  9
$LUNITS
 70
     2
  9
$LUPREC
 70
     4
  9
$SKETCHINC
 40
0.1
  9
$FILLETRAD
 40
0.0
  9
$AUNITS
 70
     0
  9
$AUPREC
 70
     0
  9
$MENU
  1
acad
  9
$ELEVATION
 40
0.0
  9
$PELEVATION
 40
0.0
  9
$THICKNESS
 40
0.0
  9
$LIMCHECK
 70
     0
  9
$BLIPMODE
 70
     0
  9
$CHAMFERA
 40
0.0
  9
$CHAMFERB
 40
0.0
  9
$CHAMFERC
 40
0.0
  9
$CHAMFERD
 40
0.0
  9
$SKPOLY
 70
     0
  9
$TDCREATE
 40
2444971.791666666
  9
$TDUPDATE
 40
2452297.076228298
  9
$TDINDWG
 40
0.0702132176
  9
$TDUSRTIMER
 40
0.0702132176
  9
$USRTIMER
 70
     1
  9
$ANGBASE
 50
0.0
  9
$ANGDIR
 70
     0
  9
$PDMODE
 70
     0
  9
$PDSIZE
 40
0.0
  9
$PLINEWID
 40
0.0
  9
$COORDS
 70
     2
  9
$SPLFRAME
 70
     0
  9
$SPLINETYPE
 70
     6
  9
$SPLINESEGS
 70
     8
  9
$ATTDIA
 70
     0
  9
$ATTREQ
 70
     1
  9
$HANDLING
 70
 22529
  9
$HANDSEED
  5
3E0
  9
$SURFTAB1
 70
     6
  9
$SURFTAB2
 70
     6
  9
$SURFTYPE
 70
     6
  9
$SURFU
 70
     6
  9
$SURFV
 70
     6
  9
$UCSNAME
  2

  9
$UCSORG
 10
0.0
 20
0.0
 30
0.0
  9
$UCSXDIR
 10
1.0
 20
0.0
 30
0.0
  9
$UCSYDIR
 10
0.0
 20
1.0
 30
0.0
  9
$PUCSNAME
  2

  9
$PUCSORG
 10
0.0
 20
0.0
 30
0.0
  9
$PUCSXDIR
 10
1.0
 20
0.0
 30
0.0
  9
$PUCSYDIR
 10
0.0
 20
1.0
 30
0.0
  9
$USERI1
 70
     0
  9
$USERI2
 70
     0
  9
$USERI3
 70
     0
  9
$USERI4
 70
     0
  9
$USERI5
 70
     0
  9
$USERR1
 40
0.0
  9
$USERR2
 40
0.0
  9
$USERR3
 40
0.0
  9
$USERR4
 40
0.0
  9
$USERR5
 40
0.0
  9
$WORLDVIEW
 70
     1
  9
$SHADEDGE
 70
     3
  9
$SHADEDIF
 70
    70
  9
$TILEMODE
 70
     1
  9
$MAXACTVP
 70
    16
  9
$PINSBASE
 10
0.0
 20
0.0
 30
0.0
  9
$PLIMCHECK
 70
     0
  9
$PEXTMIN
 10
1.000000000000000E+20
 20
1.000000000000000E+20
 30
1.000000000000000E+20
  9
$PEXTMAX
 10
-1.000000000000000E+20
 20
-1.000000000000000E+20
 30
-1.000000000000000E+20
  9
$PLIMMIN
 10
0.0
 20
0.0
  9
$PLIMMAX
 10
12.0
 20
9.0
  9
$UNITMODE
 70
     0
  9
$VISRETAIN
 70
     0
  9
$PLINEGEN
 70
     0
  9
$PSLTSCALE
 70
     0
  9
$TREEDEPTH
 70
  3020
  9
$PICKSTYLE
 70
     1
  9
$CMLSTYLE
  2
STANDARD
  9
$CMLJUST
 70
     0
  9
$CMLSCALE
 40
1.0
  9
$PROXYGRAPHICS
 70
     1
  9
$MEASUREMENT
 70
     0
  0
ENDSEC
  0
SECTION
  2
CLASSES
  0
CLASS
  1
LWPOLYLINE
  2
AcDbPolyline
  3
AutoCAD 2000
 90
        0
280
     0
281
     1
  0
CLASS
  1
IMAGE
  2
AcDbRasterImage
  3
ISM
 90
      127
280
     0
281
     1
  0
CLASS
  1
OLE2FRAME
  2
AcDbOle2Frame
  3
AutoCAD 2000
 90
        0
280
     0
281
     1
  0
CLASS
  1
HATCH
  2
AcDbHatch
  3
AutoCAD 2000
 90
        0
280
     0
281
     1
  0
CLASS
  1
DICTIONARYVAR
  2
AcDbDictionaryVar
  3
AutoCAD 2000
 90
        0
280
     0
281
     0
  0
CLASS
  1
RASTERVARIABLES
  2
AcDbRasterVariables
  3
ISM
 90
        0
280
     0
281
     0
  0
CLASS
  1
IMAGEDEF
  2
AcDbRasterImageDef
  3
ISM
 90
        0
280
     0
281
     0
  0
CLASS
  1
IMAGEDEF_REACTOR
  2
AcDbRasterImageDefReactor
  3
ISM
 90
        1
280
     0
281
     0
  0
CLASS
  1
IDBUFFER
  2
AcDbIdBuffer
  3
AutoCAD 2000
 90
        0
280
     0
281
     0
  0
CLASS
  1
SPATIAL_FILTER
  2
AcDbSpatialFilter
  3
AutoCAD 2000
 90
        0
280
     0
281
     0
  0
CLASS
  1
XRECORD
  2
AcDbXrecord
  3
AutoCAD 2000
 90
        0
280
     0
281
     0
  0
CLASS
  1
SORTENTSTABLE
  2
AcDbSortentsTable
  3
AutoCAD 2000
 90
        0
280
     0
281
     0
  0
CLASS
  1
LAYER_INDEX
  2
AcDbLayerIndex
  3
AutoCAD 2000
 90
        0
280
     0
281
     0
  0
CLASS
  1
SPATIAL_INDEX
  2
AcDbSpatialIndex
  3
AutoCAD 2000
 90
        0
280
     0
281
     0
  0
CLASS
  1
OBJECT_PTR
  2
CAseDLPNTableRecord
  3
ASE-LPNTableRecord
 90
        1
280
     0
281
     0
  0
CLASS
  1
ACDBDICTIONARYWDFLT
  2
AcDbDictionaryWithDefault
  3
AutoCAD 2000
 90
        0
280
     0
281
     0
  0
CLASS
  1
ACDBPLACEHOLDER
  2
AcDbPlaceHolder
  3
AutoCAD 2000
 90
        0
280
     0
281
     0
  0
CLASS
  1
LAYOUT
  2
AcDbLayout
  3
AutoCAD 2000
 90
        0
280
     0
281
     0
  0
CLASS
  1
LONG_TRANSACTION
  2
AcDbLongTransaction
  3
AutoCAD 2000
 90
        0
280
     0
281
     0
  0
CLASS
  1
LWPOLYLINE
  2
AcDbPolyline
  3
AutoCAD 2000
 90
        0
280
     0
281
     1
  0
CLASS
  1
HATCH
  2
AcDbHatch
  3
AutoCAD 2000
 90
        0
280
     0
281
     1
  0
CLASS
  1
XRECORD
  2
AcDbXrecord
  3
AutoCAD 2000
 90
        0
280
     0
281
     0
  0
CLASS
  1
LONG_TRANSACTION
  2
AcDbLongTransaction
  3
AutoCAD 2000
 90
        0
280
     0
281
     0
  0
CLASS
  1
LWPOLYLINE
  2
AcDbPolyline
  3
AutoCAD 2000
 90
        0
280
     0
281
     1
  0
CLASS
  1
HATCH
  2
AcDbHatch
  3
AutoCAD 2000
 90
        0
280
     0
281
     1
  0
CLASS
  1
XRECORD
  2
AcDbXrecord
  3
AutoCAD 2000
 90
        0
280
     0
281
     0
  0
CLASS
  1
LONG_TRANSACTION
  2
AcDbLongTransaction
  3
AutoCAD 2000
 90
        0
280
     0
281
     0
  0
CLASS
  1
LWPOLYLINE
  2
AcDbPolyline
  3
AutoCAD 2000
 90
        0
280
     0
281
     1
  0
CLASS
  1
HATCH
  2
AcDbHatch
  3
AutoCAD 2000
 90
        0
280
     0
281
     1
  0
CLASS
  1
XRECORD
  2
AcDbXrecord
  3
AutoCAD 2000
 90
        0
280
     0
281
     0
  0
CLASS
  1
LONG_TRANSACTION
  2
AcDbLongTransaction
  3
AutoCAD 2000
 90
        0
280
     0
281
     0
  0
CLASS
  1
LWPOLYLINE
  2
AcDbPolyline
  3
AutoCAD 2000
 90
        0
280
     0
281
     1
  0
CLASS
  1
HATCH
  2
AcDbHatch
  3
AutoCAD 2000
 90
        0
280
     0
281
     1
  0
CLASS
  1
XRECORD
  2
AcDbXrecord
  3
AutoCAD 2000
 90
        0
280
     0
281
     0
  0
CLASS
  1
LONG_TRANSACTION
  2
AcDbLongTransaction
  3
AutoCAD 2000
 90
        0
280
     0
281
     0
  0
CLASS
  1
LWPOLYLINE
  2
AcDbPolyline
  3
AutoCAD 2000
 90
        0
280
     0
281
     1
  0
CLASS
  1
HATCH
  2
AcDbHatch
  3
AutoCAD 2000
 90
        0
280
     0
281
     1
  0
CLASS
  1
XRECORD
  2
AcDbXrecord
  3
AutoCAD 2000
 90
        0
280
     0
281
     0
  0
ENDSEC
  0
SECTION
  2
TABLES
  0
TABLE
  2
VPORT
  5
7
330
0
100
AcDbSymbolTable
 70
     3
  0
VPORT
  5
2F
330
7
100
AcDbSymbolTableRecord
100
AcDbViewportTableRecord
  2
DCADVPORT
 70
     0
 10
45.61153157252337
 20
4.009252364640886
 11
53.62245281394507
 21
7.849116572728261
 12
6.209999999999999
 22
9.019999999999999
 13
0.0
 23
0.0
 14
1.0
 24
1.0
 15
0.0
 25
0.0
 16
0.0
 26
0.0
 36
1.0
 17
0.0
 27
0.0
 37
0.0
 40
18.04
 41
0.688564
 42
50.0
 43
1.0
 44
1.0
 50
0.0
 51
0.0
 71
     0
 72
   100
 73
     1
 74
     1
 75
     0
 76
     0
 77
     0
 78
     0
  0
VPORT
  5
3BD
330
7
100
AcDbSymbolTableRecord
100
AcDbViewportTableRecord
  2
*ACTIVE
 70
     0
 10
0.0
 20
0.0
 11
1.0
 21
1.0
 12
50.22870774068381
 22
5.549709402901148
 13
0.0
 23
0.0
 14
1.0
 24
1.0
 15
0.0
 25
0.0
 16
0.0
 26
0.0
 36
1.0
 17
0.0
 27
0.0
 37
0.0
 40
8.248396954889352
 41
1.570528967254408
 42
50.0
 43
0.0
 44
0.0
 50
0.0
 51
0.0
 71
     0
 72
   100
 73
     1
 74
     1
 75
     0
 76
     0
 77
     0
 78
     0
  0
ENDTAB
  0
TABLE
  2
LTYPE
  5
4
330
0
100
AcDbSymbolTable
 70
     2
  0
LTYPE
  5
11
330
4
100
AcDbSymbolTableRecord
100
AcDbLinetypeTableRecord
  2
BYBLOCK
 70
     0
  3

 72
    65
 73
     0
 40
0.0
  0
LTYPE
  5
12
330
4
100
AcDbSymbolTableRecord
100
AcDbLinetypeTableRecord
  2
BYLAYER
 70
     0
  3

 72
    65
 73
     0
 40
0.0
  0
LTYPE
  5
13
330
4
100
AcDbSymbolTableRecord
100
AcDbLinetypeTableRecord
  2
CONTINUOUS
 70
     0
  3
Solid line
 72
    65
 73
     0
 40
0.0
  0
LTYPE
  5
1E
330
4
100
AcDbSymbolTableRecord
100
AcDbLinetypeTableRecord
  2
CONTINUOUS
 70
     0
  3
Solid line
 72
    65
 73
     0
 40
0.0
  0
ENDTAB
  0
TABLE
  2
LAYER
  5
2
330
0
100
AcDbSymbolTable
 70
     6
  0
LAYER
  5
14
330
2
100
AcDbSymbolTableRecord
100
AcDbLayerTableRecord
  2
0
 70
     0
 62
     7
  6
CONTINUOUS
  0
LAYER
  5
2A
330
2
100
AcDbSymbolTableRecord
100
AcDbLayerTableRecord
  2
0
 70
     0
 62
   250
  6
CONTINUOUS
  0
LAYER
  5
2B
330
2
100
AcDbSymbolTableRecord
100
AcDbLayerTableRecord
  2
ADP1DETAIL
 70
     0
 62
   250
  6
CONTINUOUS
  0
LAYER
  5
2C
330
2
100
AcDbSymbolTableRecord
100
AcDbLayerTableRecord
  2
DEFPOINTS
 70
     0
 62
   250
  6
CONTINUOUS
  0
LAYER
  5
2D
330
2
100
AcDbSymbolTableRecord
100
AcDbLayerTableRecord
  2
ADPDIM
 70
     0
 62
     3
  6
CONTINUOUS
  0
LAYER
  5
2E
330
2
100
AcDbSymbolTableRecord
100
AcDbLayerTableRecord
  2
ADP2DETAIL
 70
     0
 62
   250
  6
CONTINUOUS
  0
ENDTAB
  0
TABLE
  2
STYLE
  5
3
330
0
100
AcDbSymbolTable
 70
     2
  0
STYLE
  5
17
330
3
100
AcDbSymbolTableRecord
100
AcDbTextStyleTableRecord
  2
STANDARD
 70
     0
 40
0.0
 41
1.0
 50
0.0
 71
     0
 42
0.0
  3
txt
  4

  0
STYLE
  5
25D
330
3
100
AcDbSymbolTableRecord
100
AcDbTextStyleTableRecord
  2
ARIAL_WIDE
 70
     0
 40
0.0
 41
1.25
 50
0.0
 71
     0
 42
0.2
  3
ARIAL.TTF
  4

1001
ACAD
1000
Arial
1071
       34
  0
ENDTAB
  0
TABLE
  2
VIEW
  5
5
330
0
100
AcDbSymbolTable
 70
     0
  0
ENDTAB
  0
TABLE
  2
UCS
  5
6
330
0
100
AcDbSymbolTable
 70
     0
  0
ENDTAB
  0
TABLE
  2
APPID
  5
8
330
0
100
AcDbSymbolTable
 70
     1
  0
APPID
  5
16
330
8
100
AcDbSymbolTableRecord
100
AcDbRegAppTableRecord
  2
ACAD
 70
     0
  0
ENDTAB
  0
TABLE
  2
DIMSTYLE
  5
9
330
0
100
AcDbSymbolTable
 70
     1
  0
DIMSTYLE
105
18
330
9
100
AcDbSymbolTableRecord
100
AcDbDimStyleTableRecord
  2
STANDARD
 70
     0
  3

  4

  5

  6

  7

 40
1.0
 41
0.18
 42
0.0625
 43
0.38
 44
0.18
 45
0.0
 46
0.0
 47
0.0
 48
0.0
140
0.18
141
0.09
142
0.0
143
25.4
144
1.0
145
0.0
146
1.0
147
0.09
 71
     0
 72
     0
 73
     1
 74
     1
 75
     0
 76
     0
 77
     0
 78
     0
170
     0
171
     2
172
     0
173
     0
174
     0
175
     0
176
     0
177
     0
178
     0
270
     2
271
     4
272
     4
273
     2
274
     2
340
17
275
     0
280
     0
281
     0
282
     0
283
     1
284
     0
285
     0
286
     0
287
     0
288
     0
  0
ENDTAB
  0
TABLE
  2
BLOCK_RECORD
  5
1
330
0
100
AcDbSymbolTable
 70
     0
  0
BLOCK_RECORD
  5
A
102
{ACAD_XDICTIONARY
360
2B4
102
}
330
1
100
AcDbSymbolTableRecord
100
AcDbBlockTableRecord
  2
*MODEL_SPACE
  0
BLOCK_RECORD
  5
B
102
{ACAD_XDICTIONARY
360
2B6
102
}
330
1
100
AcDbSymbolTableRecord
100
AcDbBlockTableRecord
  2
*PAPER_SPACE
  0
ENDTAB
  0
ENDSEC
  0
SECTION
  2
BLOCKS
  0
BLOCK
  5
D
330
A
100
AcDbEntity
  8
0
100
AcDbBlockBegin
  2
*MODEL_SPACE
 70
     0
 10
0.0
 20
0.0
 30
0.0
  3
*MODEL_SPACE
  1

  0
ENDBLK
  5
E
330
A
100
AcDbEntity
  8
0
100
AcDbBlockEnd
  0
BLOCK
  5
F
330
B
100
AcDbEntity
 67
     1
  8
0
100
AcDbBlockBegin
  2
*PAPER_SPACE
 70
     0
 10
0.0
 20
0.0
 30
0.0
  3
*PAPER_SPACE
  1

  0
ENDBLK
  5
10
330
B
100
AcDbEntity
 67
     1
  8
0
100
AcDbBlockEnd
  0
ENDSEC
  0
SECTION
  2
ENTITIES
  0
LWPOLYLINE
  5
30
330
A
100
AcDbEntity
  8
ADP1DETAIL
  6
CONTINUOUS
 62
     7
100
AcDbPolyline
 90
        2
 70
   128
 43
0.0
 10
48.37728904657673
 20
5.281183438343537
 10
48.37728904657673
 20
6.810717561717078
  0
LWPOLYLINE
  5
34
330
A
100
AcDbEntity
  8
0
  6
CONTINUOUS
 62
     7
100
AcDbPolyline
 90
        2
 70
   128
 43
0.0
 10
49.12728904657673
 20
6.810717561717079
 10
49.12728904657673
 20
5.281183438343538
  0
LWPOLYLINE
  5
38
330
A
100
AcDbEntity
  8
ADP2DETAIL
  6
CONTINUOUS
 62
     5
100
AcDbPolyline
 90
        2
 70
   128
 43
0.0
 10
48.84628904657673
 20
6.591680037280364
 10
48.90828904657673
 20
6.529680037280367
  0
LWPOLYLINE
  5
3C
330
A
100
AcDbEntity
  8
ADP2DETAIL
  6
CONTINUOUS
 62
     5
100
AcDbPolyline
 90
        2
 70
   128
 43
0.0
 10
48.65828904657672
 20
6.591680037280364
 10
48.59628904657673
 20
6.529680037280367
  0
LWPOLYLINE
  5
40
330
A
100
AcDbEntity
  8
ADP2DETAIL
  6
CONTINUOUS
 62
     5
100
AcDbPolyline
 90
        2
 70
   128
 43
0.0
 10
52.84372877800683
 20
6.595956949662319
 10
52.78172877800684
 20
6.533956949662321
  0
LWPOLYLINE
  5
44
330
A
100
AcDbEntity
  8
ADP2DETAIL
  6
CONTINUOUS
 62
     5
100
AcDbPolyline
 90
        2
 70
   128
 43
0.0
 10
53.03172877800683
 20
6.595956949662319
 10
53.09372877800683
 20
6.533956949662321
  0
LWPOLYLINE
  5
48
330
A
100
AcDbEntity
  8
ADP2DETAIL
  6
CONTINUOUS
 62
     5
100
AcDbPolyline
 90
        2
 70
   128
 43
0.0
 10
51.40672877800684
 20
6.595956949662319
 10
51.46872877800683
 20
6.533956949662321
  0
LWPOLYLINE
  5
4C
330
A
100
AcDbEntity
  8
ADP2DETAIL
  6
CONTINUOUS
 62
     5
100
AcDbPolyline
 90
        2
 70
   128
 43
0.0
 10
51.21872877800683
 20
6.595956949662319
 10
51.15672877800683
 20
6.533956949662321
  0
LWPOLYLINE
  5
50
330
A
100
AcDbEntity
  8
0
  6
CONTINUOUS
 62
     7
100
AcDbPolyline
 90
        2
 70
   128
 43
0.0
 10
50.87596027679163
 20
6.534350815442568
 10
50.87596027679163
 20
6.841396217070684
  0
LWPOLYLINE
  5
54
330
A
100
AcDbEntity
  8
0
  6
CONTINUOUS
 62
     7
100
AcDbPolyline
 90
        2
 70
   128
 43
0.0
 10
52.31231500963737
 20
5.906307655918677
 10
52.31231500963737
 20
6.860855154702225
  0
LWPOLYLINE
  5
58
330
A
100
AcDbEntity
  8
0
  6
CONTINUOUS
 62
     7
100
AcDbPolyline
 90
        2
 70
   128
 43
0.0
 10
51.93846027679163
 20
5.906307655918677
 10
51.93846027679163
 20
6.860855154702225
  0
ARC
  5
5C
330
A
100
AcDbEntity
  8
0
  6
CONTINUOUS
 62
     7
100
AcDbCircle
 10
-52.12646027679163
 20
5.656683438343538
 30
0.0
 40
1.437499999999997
210
0.0
220
0.0
230
-1.0
100
AcDbArc
 50
142.3706296439194
 51
37.6293703560806
  0
ARC
  5
5D
330
A
100
AcDbEntity
  8
0
  6
CONTINUOUS
 62
     7
100
AcDbCircle
 10
-52.12646027679163
 20
5.656683438343538
 30
0.0
 40
1.499999999999998
210
0.0
220
0.0
230
-1.0
100
AcDbArc
 50
144.1891266479682
 51
35.81087335203181
  0
LWPOLYLINE
  5
5E
330
A
100
AcDbEntity
  8
ADP1DETAIL
  6
CONTINUOUS
 62
     7
100
AcDbPolyline
 90
        2
 70
   128
 43
0.0
 10
45.7326856946174
 20
4.169491202407582
 10
45.7326856946174
 20
7.143875674279493
  0
LWPOLYLINE
  5
62
330
A
100
AcDbEntity
  8
ADP1DETAIL
  6
CONTINUOUS
 62
     7
100
AcDbPolyline
 90
        2
 70
   128
 43
0.0
 10
45.9826856946174
 20
7.045775301146461
 10
45.9826856946174
 20
4.955528477367233
  0
LWPOLYLINE
  5
66
330
A
100
AcDbEntity
  8
0
  6
CONTINUOUS
 62
     7
100
AcDbPolyline
 90
        2
 70
   128
 43
0.0
 10
47.60364792747914
 20
5.407516254905006
 10
46.6076856946174
 20
5.281683438343536
  0
LWPOLYLINE
  5
6A
330
A
100
AcDbEntity
  8
0
  6
CONTINUOUS
 62
     7
100
AcDbPolyline
 90
        2
 70
   128
 43
0.0
 10
46.6076856946174
 20
6.031683438343536
 10
47.60364792747914
 20
5.906683438343536
  0
LWPOLYLINE
  5
6E
330
A
100
AcDbEntity
  8
ADP1DETAIL
  6
CONTINUOUS
 62
     7
100
AcDbPolyline
 90
        2
 70
   128
 43
0.0
 10
45.9826856946174
 20
4.983275301146464
 10
45.9826856946174
 20
4.267591575540611
  0
ARC
  5
72
330
A
100
AcDbEntity
  8
ADP1DETAIL
  6
CONTINUOUS
 62
     7
100
AcDbCircle
 10
-45.92068569461739
 20
4.267591575540611
 30
0.0
 40
0.0620000000000001
210
0.0
220
0.0
230
-1.0
100
AcDbArc
 50
180.0
 51
255.9637565320729
  0
LWPOLYLINE
  5
73
330
A
100
AcDbEntity
  8
ADP1DETAIL
  6
CONTINUOUS
 62
     7
100
AcDbPolyline
 90
        2
 70
   128
 43
0.0
 10
45.93572290336965
 20
4.207442740531602
 10
45.74511105086776
 20
4.15978977740613
  0
ARC
  5
77
330
A
100
AcDbEntity
  8
ADP1DETAIL
  6
CONTINUOUS
 62
     7
100
AcDbCircle
 10
-45.74268569461739
 20
4.169491202407582
 30
0.0
 40
0.009999999999998
210
0.0
220
0.0
230
-1.0
100
AcDbArc
 50
255.9637565320755
 51
360.0000000000008
  0
LWPOLYLINE
  5
78
330
A
100
AcDbEntity
  8
ADP1DETAIL
  6
CONTINUOUS
 62
     7
100
AcDbPolyline
 90
        2
 70
   128
 43
0.0
 10
46.4826856946174
 20
6.148875674279492
 10
46.4826856946174
 20
5.16449120240758
  0
LWPOLYLINE
  5
7C
330
A
100
AcDbEntity
  8
ADP1DETAIL
  6
CONTINUOUS
 62
     7
100
AcDbPolyline
 90
        2
 70
   128
 43
0.0
 10
46.60758610066402
 20
5.253185895555963
 10
46.6076856946174
 20
5.656683438343536
  0
LWPOLYLINE
  5
80
330
A
100
AcDbEntity
  8
ADP1DETAIL
  6
CONTINUOUS
 62
     7
100
AcDbPolyline
 90
        2
 70
   128
 43
0.0
 10
46.4826856946174
 20
5.656683438343536
 10
46.4826856946174
 20
5.219183438343536
  0
LWPOLYLINE
  5
84
330
A
100
AcDbEntity
  8
ADP1DETAIL
  6
CONTINUOUS
 62
     7
100
AcDbPolyline
 90
        2
 70
   128
 43
0.0
 10
46.47511105086777
 20
5.154789777406127
 10
46.02964848586514
 20
5.043424136155477
  0
ARC
  5
88
330
A
100
AcDbEntity
  8
ADP1DETAIL
  6
CONTINUOUS
 62
     7
100
AcDbCircle
 10
-46.04468569461739
 20
4.983275301146464
 30
0.0
 40
0.0620000000000001
210
0.0
220
0.0
230
-1.0
100
AcDbArc
 50
0.0
 51
75.96375653207212
  0
ARC
  5
89
330
A
100
AcDbEntity
  8
ADP1DETAIL
  6
CONTINUOUS
 62
     7
100
AcDbCircle
 10
-46.47268569461739
 20
5.16449120240758
 30
0.0
 40
0.01
210
0.0
220
0.0
230
-1.0
100
AcDbArc
 50
180.0
 51
255.9637565320755
  0
LWPOLYLINE
  5
8A
330
A
100
AcDbEntity
  8
ADP1DETAIL
  6
CONTINUOUS
 62
     7
100
AcDbPolyline
 90
        2
 70
   128
 43
0.0
 10
46.4826856946174
 20
5.219183438343536
 10
46.60758610066402
 20
5.253185895555963
  0
LWPOLYLINE
  5
8E
330
A
100
AcDbEntity
  8
ADP1DETAIL
  6
CONTINUOUS
 62
     7
100
AcDbPolyline
 90
        2
 70
   128
 43
0.0
 10
46.02964848586514
 20
6.269942740531599
 10
46.47511105086777
 20
6.158577099280945
  0
ARC
  5
92
330
A
100
AcDbEntity
  8
ADP1DETAIL
  6
CONTINUOUS
 62
     7
100
AcDbCircle
 10
-46.04468569461739
 20
6.330091575540611
 30
0.0
 40
0.0619999999999976
210
0.0
220
0.0
230
-1.0
100
AcDbArc
 50
284.0362434679286
 51
360.0000000000008
  0
LWPOLYLINE
  5
93
330
A
100
AcDbEntity
  8
ADP1DETAIL
  6
CONTINUOUS
 62
     7
100
AcDbPolyline
 90
        2
 70
   128
 43
0.0
 10
46.60758610066402
 20
6.060180981131113
 10
46.6076856946174
 20
5.656683438343536
  0
LWPOLYLINE
  5
97
330
A
100
AcDbEntity
  8
ADP1DETAIL
  6
CONTINUOUS
 62
     7
100
AcDbPolyline
 90
        2
 70
   128
 43
0.0
 10
46.4826856946174
 20
5.656683438343536
 10
46.4826856946174
 20
6.094183438343536
  0
ARC
  5
9B
330
A
100
AcDbEntity
  8
ADP1DETAIL
  6
CONTINUOUS
 62
     7
100
AcDbCircle
 10
-46.47268569461739
 20
6.148875674279492
 30
0.0
 40
0.009999999999998
210
0.0
220
0.0
230
-1.0
100
AcDbArc
 50
104.0362434679252
 51
180.0
  0
LWPOLYLINE
  5
9C
330
A
100
AcDbEntity
  8
ADP1DETAIL
  6
CONTINUOUS
 62
     7
100
AcDbPolyline
 90
        2
 70
   128
 43
0.0
 10
46.4826856946174
 20
6.094183438343536
 10
46.60758610066402
 20
6.060180981131113
  0
LWPOLYLINE
  5
A0
330
A
100
AcDbEntity
  8
0
  6
CONTINUOUS
 62
     7
100
AcDbPolyline
 90
        2
 70
   128
 43
0.0
 10
47.60364792747914
 20
5.906683438343536
 10
48.35114077568045
 20
5.969183438343536
  0
LWPOLYLINE
  5
A4
330
A
100
AcDbEntity
  8
0
  6
CONTINUOUS
 62
     7
100
AcDbPolyline
 90
        2
 70
   128
 43
0.0
 10
48.35114077568045
 20
5.344183438343536
 10
47.60364792747914
 20
5.407516254905006
  0
LWPOLYLINE
  5
A8
330
A
100
AcDbEntity
  8
0
  6
CONTINUOUS
 62
     7
100
AcDbPolyline
 90
        2
 70
   128
 43
0.0
 10
47.60364792747914
 20
5.407516254905006
 10
47.60364792747914
 20
5.90585062178207
  0
LWPOLYLINE
  5
AC
330
A
100
AcDbEntity
  8
0
  6
CONTINUOUS
 62
     7
100
AcDbPolyline
 90
        2
 70
   128
 43
0.0
 10
49.25228904657673
 20
5.378397919146386
 10
49.25228904657673
 20
5.656683438343537
  0
LWPOLYLINE
  5
B0
330
A
100
AcDbEntity
  8
0
  6
CONTINUOUS
 62
     7
100
AcDbPolyline
 90
        2
 70
   128
 43
0.0
 10
49.12728904657673
 20
5.469183438343537
 10
49.12728904657673
 20
5.344183438343537
  0
ARC
  5
B4
330
A
100
AcDbEntity
  8
ADP2DETAIL
  6
CONTINUOUS
 62
     5
100
AcDbCircle
 10
-49.94874950475448
 20
5.656683438343537
 30
0.0
 40
0.75
210
0.0
220
0.0
230
-1.0
100
AcDbArc
 50
338.2197748746755
 51
360.0000000000008
  0
LWPOLYLINE
  5
B5
330
A
100
AcDbEntity
  8
ADP1DETAIL
  6
CONTINUOUS
 62
     7
100
AcDbPolyline
 90
        2
 70
   128
 43
0.0
 10
48.37728904657673
 20
5.969183438343536
 10
48.37728904657673
 20
5.344183438343536
  0
LWPOLYLINE
  5
B9
330
A
100
AcDbEntity
  8
0
  6
CONTINUOUS
 62
     7
100
AcDbPolyline
 90
        2
 70
   128
 43
0.0
 10
49.12728904657673
 20
5.281183438343538
 10
48.37728904657673
 20
5.281183438343538
  0
LWPOLYLINE
  5
BD
330
A
100
AcDbEntity
  8
0
  6
CONTINUOUS
 62
     7
100
AcDbPolyline
 90
        2
 70
   128
 43
0.0
 10
49.24802977486286
 20
5.376535818981351
 10
49.24802977486286
 20
5.376535818981351
  0
LWPOLYLINE
  5
C1
330
A
100
AcDbEntity
  8
0
  6
CONTINUOUS
 62
     7
100
AcDbPolyline
 90
        2
 70
   128
 43
0.0
 10
49.12728904657673
 20
5.344183438343537
 10
49.24802977486286
 20
5.376535818981351
  0
LWPOLYLINE
  5
C5
330
A
100
AcDbEntity
  8
0
  6
CONTINUOUS
 62
     7
100
AcDbPolyline
 90
        2
 70
   128
 43
0.0
 10
49.12728904657673
 20
6.530683438343539
 10
48.37728904657673
 20
6.530683438343539
  0
LWPOLYLINE
  5
C9
330
A
100
AcDbEntity
  8
ADP1DETAIL
  6
CONTINUOUS
 62
     7
100
AcDbPolyline
 90
        2
 70
   128
 43
0.0
 10
48.37728904657673
 20
5.469183438343536
 10
48.37728904657673
 20
5.844183438343536
  0
LWPOLYLINE
  5
CD
330
A
100
AcDbEntity
  8
0
  6
CONTINUOUS
 62
     7
100
AcDbPolyline
 90
        2
 70
   128
 43
0.0
 10
49.12728904657673
 20
5.844183438343537
 10
49.12728904657673
 20
5.469183438343537
  0
LWPOLYLINE
  5
D1
330
A
100
AcDbEntity
  8
0
  6
CONTINUOUS
 62
     7
100
AcDbPolyline
 90
        2
 70
   128
 43
0.0
 10
49.12728904657673
 20
5.844183438343537
 10
49.12728904657673
 20
5.969183438343537
  0
LWPOLYLINE
  5
D5
330
A
100
AcDbEntity
  8
0
  6
CONTINUOUS
 62
     7
100
AcDbPolyline
 90
        2
 70
   128
 43
0.0
 10
49.25228904657673
 20
5.934968957540692
 10
49.25228904657673
 20
5.656683438343537
  0
LWPOLYLINE
  5
D9
330
A
100
AcDbEntity
  8
0
  6
CONTINUOUS
 62
     7
100
AcDbPolyline
 90
        2
 70
   128
 43
0.0
 10
49.24802977486286
 20
5.936831057705723
 10
49.24802977486286
 20
5.936831057705723
  0
LWPOLYLINE
  5
DD
330
A
100
AcDbEntity
  8
0
  6
CONTINUOUS
 62
     7
100
AcDbPolyline
 90
        2
 70
   128
 43
0.0
 10
49.12728904657673
 20
5.969183438343537
 10
49.24802977486286
 20
5.936831057705723
  0
ARC
  5
E1
330
A
100
AcDbEntity
  8
ADP2DETAIL
  6
CONTINUOUS
 62
     5
100
AcDbCircle
 10
-49.94874950475448
 20
5.656683438343537
 30
0.0
 40
0.7499999999999974
210
0.0
220
0.0
230
-1.0
100
AcDbArc
 50
0.0
 51
21.78022512532528
  0
ARC
  5
E2
330
A
100
AcDbEntity
  8
0
  6
CONTINUOUS
 62
     7
100
AcDbCircle
 10
-52.12646027679163
 20
5.659850815442567
 30
0.0
 40
0.3745000000000003
210
0.0
220
0.0
230
-1.0
100
AcDbArc
 50
180.0
 51
270.0000000000008
  0
CIRCLE
  5
E3
330
A
100
AcDbEntity
  8
0
  6
CONTINUOUS
 62
     7
100
AcDbCircle
 10
-52.12646027679163
 20
5.656683438343538
 30
0.0
 40
0.2859512779740925
210
0.0
220
0.0
230
-1.0
  0
ARC
  5
E4
330
A
100
AcDbEntity
  8
0
  6
CONTINUOUS
 62
     7
100
AcDbCircle
 10
-52.12646027679163
 20
5.656683438343538
 30
0.0
 40
0.5000000000000015
210
0.0
220
0.0
230
-1.0
100
AcDbArc
 50
138.5038289027596
 51
41.32292462379881
  0
ARC
  5
E5
330
A
100
AcDbEntity
  8
0
  6
CONTINUOUS
 62
     7
100
AcDbCircle
 10
-52.12646027679163
 20
5.656683438343538
 30
0.0
 40
0.6250000000000017
210
0.0
220
0.0
230
-1.0
100
AcDbArc
 50
126.8126233266155
 51
53.0727850630304
  0
CIRCLE
  5
E6
330
A
100
AcDbEntity
  8
0
  6
CONTINUOUS
 62
     7
100
AcDbCircle
 10
-52.12646027679163
 20
5.656683438343538
 30
0.0
 40
0.3125
210
0.0
220
0.0
230
-1.0
  0
LWPOLYLINE
  5
E7
330
A
100
AcDbEntity
  8
0
  6
CONTINUOUS
 62
     7
100
AcDbPolyline
 90
        2
 70
   128
 43
0.0
 10
51.62596027679163
 20
6.534350815442568
 10
50.87596027679163
 20
6.534350815442568
  0
ARC
  5
EB
330
A
100
AcDbEntity
  8
0
  6
CONTINUOUS
 62
     7
100
AcDbCircle
 10
-52.12546027679163
 20
5.659850815442567
 30
0.0
 40
0.3744999999999976
210
0.0
220
0.0
230
-1.0
100
AcDbArc
 50
270.0000000000008
 51
360.0000000000008
  0
LWPOLYLINE
  5
EC
330
A
100
AcDbEntity
  8
0
  6
CONTINUOUS
 62
     7
100
AcDbPolyline
 90
        2
 70
   128
 43
0.0
 10
52.12646027679163
 20
5.285350815442566
 10
52.12546027679163
 20
5.285350815442566
  0
LWPOLYLINE
  5
F0
330
A
100
AcDbEntity
  8
0
  6
CONTINUOUS
 62
     7
100
AcDbPolyline
 90
        2
 70
   128
 43
0.0
 10
51.75096027679163
 20
5.659850815442567
 10
51.75096027679163
 20
6.409350815442568
  0
ARC
  5
F4
330
A
100
AcDbEntity
  8
0
  6
CONTINUOUS
 62
     7
100
AcDbCircle
 10
-51.62596027679163
 20
6.409350815442568
 30
0.0
 40
0.125
210
0.0
220
0.0
230
-1.0
100
AcDbArc
 50
90.0
 51
180.0
  0
LWPOLYLINE
  5
F5
330
A
100
AcDbEntity
  8
0
  6
CONTINUOUS
 62
     7
100
AcDbPolyline
 90
        2
 70
   128
 43
0.0
 10
53.37596027679163
 20
6.534350815442568
 10
52.62596027679163
 20
6.534350815442568
  0
LWPOLYLINE
  5
F9
330
A
100
AcDbEntity
  8
0
  6
CONTINUOUS
 62
     7
100
AcDbPolyline
 90
        2
 70
   128
 43
0.0
 10
52.50096027679163
 20
6.409350815442568
 10
52.50096027679163
 20
5.659850815442567
  0
ARC
  5
FD
330
A
100
AcDbEntity
  8
0
  6
CONTINUOUS
 62
     7
100
AcDbCircle
 10
-52.62596027679163
 20
6.409350815442568
 30
0.0
 40
0.125
210
0.0
220
0.0
230
-1.0
100
AcDbArc
 50
0.0
 51
90.0
  0
ARC
  5
FE
330
A
100
AcDbEntity
  8
ADP1DETAIL
  6
CONTINUOUS
 62
     7
100
AcDbCircle
 10
-45.92068569461739
 20
7.045775301146461
 30
0.0
 40
0.0619999999999976
210
0.0
220
0.0
230
-1.0
100
AcDbArc
 50
104.0362434679278
 51
180.0
  0
LWPOLYLINE
  5
FF
330
A
100
AcDbEntity
  8
ADP1DETAIL
  6
CONTINUOUS
 62
     7
100
AcDbPolyline
 90
        2
 70
   128
 43
0.0
 10
45.74511105086776
 20
7.153577099280946
 10
45.93572290336965
 20
7.105924136155474
  0
ARC
  5
103
330
A
100
AcDbEntity
  8
ADP1DETAIL
  6
CONTINUOUS
 62
     7
100
AcDbCircle
 10
-45.74268569461739
 20
7.143875674279493
 30
0.0
 40
0.01
210
0.0
220
0.0
230
-1.0
100
AcDbArc
 50
0.0
 51
104.0362434679252
  0
ARC
  5
104
330
A
100
AcDbEntity
  8
0
  6
CONTINUOUS
 62
     7
100
AcDbCircle
 10
-48.75228904657674
 20
7.528683438343537
 30
0.0
 40
0.8099999999999997
210
0.0
220
0.0
230
-1.0
100
AcDbArc
 50
242.4215320218777
 51
297.5784679781239
  0
LWPOLYLINE
  5
105
330
A
100
AcDbEntity
  8
ADP2DETAIL
  6
CONTINUOUS
 62
     5
100
AcDbPolyline
 90
        2
 70
   128
 43
0.0
 10
48.84628904657673
 20
6.716680037280364
 10
48.84628904657673
 20
6.591680037280364
  0
LWPOLYLINE
  5
109
330
A
100
AcDbEntity
  8
ADP2DETAIL
  6
CONTINUOUS
 62
     5
100
AcDbPolyline
 90
        2
 70
   128
 43
0.0
 10
48.65828904657672
 20
6.716680037280364
 10
48.65828904657672
 20
6.591680037280364
  0
LWPOLYLINE
  5
10D
330
A
100
AcDbEntity
  8
ADP2DETAIL
  6
CONTINUOUS
 62
     5
100
AcDbPolyline
 90
        2
 70
   128
 43
0.0
 10
51.93731500963737
 20
6.741332686306378
 10
52.31231500963737
 20
6.741332686306378
  0
ARC
  5
111
330
A
100
AcDbEntity
  8
0
  6
CONTINUOUS
 62
     7
100
AcDbCircle
 10
-52.12646027679163
 20
5.656683438343538
 30
0.0
 40
1.437499999999997
210
0.0
220
0.0
230
-1.0
100
AcDbArc
 50
55.50220845023205
 51
124.453255976773
  0
ARC
  5
112
330
A
100
AcDbEntity
  8
0
  6
CONTINUOUS
 62
     7
100
AcDbCircle
 10
-52.12646027679163
 20
5.656683438343538
 30
0.0
 40
1.5
210
0.0
220
0.0
230
-1.0
100
AcDbArc
 50
52.16762091227264
 51
127.8025664359292
  0
LWPOLYLINE
  5
113
330
A
100
AcDbEntity
  8
0
  6
CONTINUOUS
 62
     7
100
AcDbPolyline
 90
        2
 70
   128
 43
0.0
 10
51.93731500963737
 20
6.860378087934495
 10
52.31231500963737
 20
6.860378087934495
  0
LWPOLYLINE
  5
117
330
A
100
AcDbEntity
  8
ADP2DETAIL
  6
CONTINUOUS
 62
     5
100
AcDbPolyline
 90
        2
 70
   128
 43
0.0
 10
50.87596027679163
 20
6.722350815442567
 10
51.8770759203707
 20
6.722350815442567
  0
LWPOLYLINE
  5
11B
330
A
100
AcDbEntity
  8
0
  6
CONTINUOUS
 62
     7
100
AcDbPolyline
 90
        2
 70
   128
 43
0.0
 10
50.87596027679163
 20
6.841396217070684
 10
51.94248722205438
 20
6.841396217070684
  0
LWPOLYLINE
  5
11F
330
A
100
AcDbEntity
  8
ADP2DETAIL
  6
CONTINUOUS
 62
     5
100
AcDbPolyline
 90
        2
 70
   128
 43
0.0
 10
51.40672877800684
 20
6.720956949662319
 10
51.40672877800684
 20
6.595956949662319
  0
LWPOLYLINE
  5
123
330
A
100
AcDbEntity
  8
ADP2DETAIL
  6
CONTINUOUS
 62
     5
100
AcDbPolyline
 90
        2
 70
   128
 43
0.0
 10
51.21872877800683
 20
6.720956949662319
 10
51.21872877800683
 20
6.595956949662319
  0
LWPOLYLINE
  5
127
330
A
100
AcDbEntity
  8
ADP2DETAIL
  6
CONTINUOUS
 62
     5
100
AcDbPolyline
 90
        2
 70
   128
 43
0.0
 10
53.37596027679163
 20
6.722350815442567
 10
52.40114243729536
 20
6.723437505847694
  0
LWPOLYLINE
  5
12B
330
A
100
AcDbEntity
  8
0
  6
CONTINUOUS
 62
     7
100
AcDbPolyline
 90
        2
 70
   128
 43
0.0
 10
53.37596027679163
 20
6.841396217070684
 10
52.31370839639052
 20
6.842482907475812
  0
LWPOLYLINE
  5
12F
330
A
100
AcDbEntity
  8
ADP2DETAIL
  6
CONTINUOUS
 62
     5
100
AcDbPolyline
 90
        2
 70
   128
 43
0.0
 10
52.84372877800683
 20
6.720956949662319
 10
52.84372877800683
 20
6.595956949662319
  0
LWPOLYLINE
  5
133
330
A
100
AcDbEntity
  8
ADP2DETAIL
  6
CONTINUOUS
 62
     5
100
AcDbPolyline
 90
        2
 70
   128
 43
0.0
 10
53.03172877800683
 20
6.720956949662319
 10
53.03172877800683
 20
6.595956949662319
  0
LWPOLYLINE
  5
137
330
A
100
AcDbEntity
  8
0
  6
CONTINUOUS
 62
     7
100
AcDbPolyline
 90
        2
 70
   128
 43
0.0
 10
53.37596027679163
 20
6.841396217070684
 10
53.37596027679163
 20
6.534350815442568
  0
LWPOLYLINE
  5
13B
330
A
100
AcDbEntity
  8
ADPDIM
  6
CONTINUOUS
 62
     3
 48
0.125
100
AcDbPolyline
 90
        2
 70
   128
 43
0.0
 10
48.81478904657673
 20
6.718683438343536
 10
49.94191809655701
 20
6.718683438343536
  0
LWPOLYLINE
  5
13F
330
A
100
AcDbEntity
  8
ADPDIM
  6
CONTINUOUS
 62
     3
 48
0.125
100
AcDbPolyline
 90
        2
 70
   128
 43
0.0
 10
49.31478904657673
 20
5.656683438343537
 10
49.94191809655701
 20
5.656683438343537
  0
LWPOLYLINE
  5
143
330
A
100
AcDbEntity
  8
ADPDIM
  6
CONTINUOUS
 62
     3
 48
0.125
100
AcDbPolyline
 90
        2
 70
   128
 43
0.0
 10
49.76191809655701
 20
6.718683438343536
 10
49.76191809655701
 20
6.968683438343536
  0
LWPOLYLINE
  5
147
330
A
100
AcDbEntity
  8
ADPDIM
  6
CONTINUOUS
 62
     3
 48
0.125
100
AcDbPolyline
 90
        2
 70
   128
 43
0.0
 10
49.76191809655701
 20
5.656683438343537
 10
49.76191809655701
 20
5.406683438343537
  0
LWPOLYLINE
  5
14B
330
A
100
AcDbEntity
  8
ADPDIM
  6
CONTINUOUS
 62
     3
 48
0.125
100
AcDbPolyline
 90
        2
 70
   128
 43
0.0
 10
49.88691809655701
 20
6.593683438343536
 10
49.63691809655701
 20
6.843683438343536
  0
LWPOLYLINE
  5
14F
330
A
100
AcDbEntity
  8
ADPDIM
  6
CONTINUOUS
 62
     3
 48
0.125
100
AcDbPolyline
 90
        2
 70
   128
 43
0.0
 10
49.88691809655701
 20
5.531683438343537
 10
49.63691809655701
 20
5.781683438343537
  0
TEXT
  5
153
330
A
100
AcDbEntity
  8
ADPDIM
 62
     3
 48
0.0
100
AcDbText
 10
49.82441809655701
 20
4.698350105010203
 30
0.0
 40
0.125
  1
1 1/16
 50
90.0
 72
     5
 11
49.82441809655701
 21
5.281683438343537
 31
0.0
100
AcDbText
  0
LWPOLYLINE
  5
154
330
A
100
AcDbEntity
  8
ADPDIM
  6
CONTINUOUS
 62
     3
 48
0.125
100
AcDbPolyline
 90
        2
 70
   128
 43
0.0
 10
51.17245623261503
 20
4.499153186602927
 10
51.01345555858559
 20
4.306231477979492
  0
LWPOLYLINE
  5
158
330
A
100
AcDbEntity
  8
ADPDIM
  6
CONTINUOUS
 62
     3
 48
0.125
100
AcDbPolyline
 90
        2
 70
   128
 43
0.0
 10
51.18941674991202
 20
4.323191995276492
 10
51.15549571531802
 20
4.675114377929362
  0
LWPOLYLINE
  5
15C
330
A
100
AcDbEntity
  8
ADPDIM
  6
CONTINUOUS
 62
     3
 48
0.125
100
AcDbPolyline
 90
        2
 70
   128
 43
0.0
 10
51.93896027679163
 20
5.656683438343537
 10
52.31396027679164
 20
5.656683438343537
  0
LWPOLYLINE
  5
160
330
A
100
AcDbEntity
  8
ADPDIM
  6
CONTINUOUS
 62
     3
 48
0.125
100
AcDbPolyline
 90
        2
 70
   128
 43
0.0
 10
52.12646027679163
 20
5.469183438343537
 10
52.12646027679163
 20
5.844183438343537
  0
TEXT
  5
164
330
A
100
AcDbEntity
  8
ADPDIM
 62
     3
 48
0.0
100
AcDbText
 10
50.84968508703553
 20
4.009252364640886
 30
0.0
 40
0.124999999999998
  1
%%c3
 50
50.50560770245974
 72
     5
 11
50.98218564872674
 21
4.170020455160422
 31
0.0
100
AcDbText
  0
LWPOLYLINE
  5
165
330
A
100
AcDbEntity
  8
ADPDIM
  6
CONTINUOUS
 62
     3
 48
0.125
100
AcDbPolyline
 90
        2
 70
   128
 43
0.0
 10
48.37728904657673
 20
5.218683438343538
 10
48.37728904657673
 20
4.227284860390504
  0
LWPOLYLINE
  5
169
330
A
100
AcDbEntity
  8
ADPDIM
  6
CONTINUOUS
 62
     3
 48
0.125
100
AcDbPolyline
 90
        2
 70
   128
 43
0.0
 10
49.12728904657673
 20
5.218683438343538
 10
49.12728904657673
 20
4.227284860390504
  0
LWPOLYLINE
  5
16D
330
A
100
AcDbEntity
  8
ADPDIM
  6
CONTINUOUS
 62
     3
 48
0.125
100
AcDbPolyline
 90
        2
 70
   128
 43
0.0
 10
48.37728904657673
 20
4.407284860390504
 10
48.12728904657674
 20
4.407284860390504
  0
LWPOLYLINE
  5
171
330
A
100
AcDbEntity
  8
ADPDIM
  6
CONTINUOUS
 62
     3
 48
0.125
100
AcDbPolyline
 90
        2
 70
   128
 43
0.0
 10
49.12728904657673
 20
4.407284860390504
 10
49.37728904657674
 20
4.407284860390504
  0
LWPOLYLINE
  5
175
330
A
100
AcDbEntity
  8
ADPDIM
  6
CONTINUOUS
 62
     3
 48
0.125
100
AcDbPolyline
 90
        2
 70
   128
 43
0.0
 10
48.25228904657674
 20
4.282284860390504
 10
48.50228904657673
 20
4.532284860390504
  0
LWPOLYLINE
  5
179
330
A
100
AcDbEntity
  8
ADPDIM
  6
CONTINUOUS
 62
     3
 48
0.125
100
AcDbPolyline
 90
        2
 70
   128
 43
0.0
 10
49.00228904657673
 20
4.282284860390504
 10
49.25228904657673
 20
4.532284860390504
  0
TEXT
  5
17D
330
A
100
AcDbEntity
  8
ADPDIM
 62
     3
 48
0.0
100
AcDbText
 10
49.50228904657674
 20
4.344784860390504
 30
0.0
 40
0.125
  1
3/4
 72
     5
 11
49.83562237991006
 21
4.344784860390504
 31
0.0
100
AcDbText
  0
LWPOLYLINE
  5
17E
330
A
100
AcDbEntity
  8
ADPDIM
  6
CONTINUOUS
 62
     3
 48
0.125
100
AcDbPolyline
 90
        2
 70
   128
 43
0.0
 10
45.73653157252336
 20
7.214257728659655
 10
45.73653157252336
 20
7.575325080183307
  0
LWPOLYLINE
  5
182
330
A
100
AcDbEntity
  8
ADPDIM
  6
CONTINUOUS
 62
     3
 48
0.125
100
AcDbPolyline
 90
        2
 70
   128
 43
0.0
 10
48.75237200986125
 20
6.834448306810277
 10
48.75237200986125
 20
7.575325080183307
  0
LWPOLYLINE
  5
186
330
A
100
AcDbEntity
  8
ADPDIM
  6
CONTINUOUS
 62
     3
 48
0.125
100
AcDbPolyline
 90
        2
 70
   128
 43
0.0
 10
45.73653157252336
 20
7.395325080183307
 10
47.07778512452565
 20
7.395325080183307
  0
LWPOLYLINE
  5
18A
330
A
100
AcDbEntity
  8
ADPDIM
  6
CONTINUOUS
 62
     3
 48
0.125
100
AcDbPolyline
 90
        2
 70
   128
 43
0.0
 10
48.75237200986125
 20
7.395325080183307
 10
47.41111845785897
 20
7.395325080183307
  0
LWPOLYLINE
  5
18E
330
A
100
AcDbEntity
  8
ADPDIM
  6
CONTINUOUS
 62
     3
 48
0.125
100
AcDbPolyline
 90
        2
 70
   128
 43
0.0
 10
45.61153157252337
 20
7.270325080183307
 10
45.86153157252336
 20
7.520325080183307
  0
LWPOLYLINE
  5
192
330
A
100
AcDbEntity
  8
ADPDIM
  6
CONTINUOUS
 62
     3
 48
0.125
100
AcDbPolyline
 90
        2
 70
   128
 43
0.0
 10
48.62737200986125
 20
7.270325080183307
 10
48.87737200986125
 20
7.520325080183307
  0
TEXT
  5
196
330
A
100
AcDbEntity
  8
ADPDIM
 62
     3
 48
0.0
100
AcDbText
 10
47.20278512452565
 20
7.332825080183307
 30
0.0
 40
0.125
  1
3
 72
     5
 11
47.28611845785898
 21
7.332825080183307
 31
0.0
100
AcDbText
  0
LWPOLYLINE
  5
197
330
A
100
AcDbEntity
  8
ADPDIM
  6
CONTINUOUS
 62
     3
 48
0.125
100
AcDbPolyline
 90
        2
 70
   128
 43
0.0
 10
51.31231500963737
 20
6.796214757239463
 10
51.31231500963737
 20
7.493663881000463
  0
LWPOLYLINE
  5
19B
330
A
100
AcDbEntity
  8
ADPDIM
  6
CONTINUOUS
 62
     3
 48
0.125
100
AcDbPolyline
 90
        2
 70
   128
 43
0.0
 10
52.93731500963737
 20
6.796214757239463
 10
52.93731500963737
 20
7.493663881000463
  0
LWPOLYLINE
  5
19F
330
A
100
AcDbEntity
  8
ADPDIM
  6
CONTINUOUS
 62
     3
 48
0.125
100
AcDbPolyline
 90
        2
 70
   128
 43
0.0
 10
51.31231500963737
 20
7.313663881000463
 10
51.72898167630403
 20
7.313663881000463
  0
LWPOLYLINE
  5
1A3
330
A
100
AcDbEntity
  8
ADPDIM
  6
CONTINUOUS
 62
     3
 48
0.125
100
AcDbPolyline
 90
        2
 70
   128
 43
0.0
 10
52.93731500963737
 20
7.313663881000463
 10
52.52064834297071
 20
7.313663881000463
  0
LWPOLYLINE
  5
1A7
330
A
100
AcDbEntity
  8
ADPDIM
  6
CONTINUOUS
 62
     3
 48
0.125
100
AcDbPolyline
 90
        2
 70
   128
 43
0.0
 10
51.18731500963737
 20
7.188663881000463
 10
51.43731500963737
 20
7.438663881000463
  0
LWPOLYLINE
  5
1AB
330
A
100
AcDbEntity
  8
ADPDIM
  6
CONTINUOUS
 62
     3
 48
0.125
100
AcDbPolyline
 90
        2
 70
   128
 43
0.0
 10
52.81231500963738
 20
7.188663881000463
 10
53.06231500963737
 20
7.438663881000463
  0
TEXT
  5
1AF
330
A
100
AcDbEntity
  8
ADPDIM
 62
     3
 48
0.0
100
AcDbText
 10
51.85398167630403
 20
7.251163881000463
 30
0.0
 40
0.125
  1
1 5/8
 72
     5
 11
52.39564834297071
 21
7.251163881000463
 31
0.0
100
AcDbText
  0
LWPOLYLINE
  5
1B0
330
A
100
AcDbEntity
  8
ADPDIM
  6
CONTINUOUS
 62
     3
 48
0.125
100
AcDbPolyline
 90
        2
 70
   128
 43
0.0
 10
50.87596027679163
 20
6.903896217070684
 10
50.87596027679163
 20
7.849116572728261
  0
LWPOLYLINE
  5
1B4
330
A
100
AcDbEntity
  8
ADPDIM
  6
CONTINUOUS
 62
     3
 48
0.125
100
AcDbPolyline
 90
        2
 70
   128
 43
0.0
 10
53.37596027679163
 20
6.847350815442567
 10
53.37596027679163
 20
7.849116572728261
  0
LWPOLYLINE
  5
1B8
330
A
100
AcDbEntity
  8
ADPDIM
  6
CONTINUOUS
 62
     3
 48
0.125
100
AcDbPolyline
 90
        2
 70
   128
 43
0.0
 10
50.87596027679163
 20
7.669116572728261
 10
51.73012694345829
 20
7.669116572728261
  0
LWPOLYLINE
  5
1BC
330
A
100
AcDbEntity
  8
ADPDIM
  6
CONTINUOUS
 62
     3
 48
0.125
100
AcDbPolyline
 90
        2
 70
   128
 43
0.0
 10
53.37596027679163
 20
7.669116572728261
 10
52.52179361012497
 20
7.669116572728261
  0
LWPOLYLINE
  5
1C0
330
A
100
AcDbEntity
  8
ADPDIM
  6
CONTINUOUS
 62
     3
 48
0.125
100
AcDbPolyline
 90
        2
 70
   128
 43
0.0
 10
50.75096027679163
 20
7.544116572728261
 10
51.00096027679163
 20
7.794116572728261
  0
LWPOLYLINE
  5
1C4
330
A
100
AcDbEntity
  8
ADPDIM
  6
CONTINUOUS
 62
     3
 48
0.125
100
AcDbPolyline
 90
        2
 70
   128
 43
0.0
 10
53.25096027679163
 20
7.544116572728261
 10
53.50096027679163
 20
7.794116572728261
  0
TEXT
  5
1C8
330
A
100
AcDbEntity
  8
ADPDIM
 62
     3
 48
0.0
100
AcDbText
 10
51.85512694345829
 20
7.606616572728261
 30
0.0
 40
0.125
  1
2 1/2
 72
     5
 11
52.39679361012496
 21
7.606616572728261
 31
0.0
100
AcDbText
  0
LWPOLYLINE
  5
1C9
330
A
100
AcDbEntity
  8
DEFPOINTS
  6
CONTINUOUS
 62
     3
 48
0.125
100
AcDbPolyline
 90
        2
 70
   128
 43
0.0
 10
48.75228904657673
 20
6.718683438343537
 10
48.75228904657673
 20
6.718683438343537
  0
LWPOLYLINE
  5
1CD
330
A
100
AcDbEntity
  8
DEFPOINTS
  6
CONTINUOUS
 62
     3
 48
0.125
100
AcDbPolyline
 90
        2
 70
   128
 43
0.0
 10
48.75228904657673
 20
6.718683438343537
 10
48.75228904657673
 20
6.718683438343537
  0
LWPOLYLINE
  5
1D1
330
A
100
AcDbEntity
  8
DEFPOINTS
  6
CONTINUOUS
 62
     3
 48
0.125
100
AcDbPolyline
 90
        2
 70
   128
 43
0.0
 10
49.25228904657673
 20
5.656683438343537
 10
49.25228904657673
 20
5.656683438343537
  0
LWPOLYLINE
  5
1D5
330
A
100
AcDbEntity
  8
DEFPOINTS
  6
CONTINUOUS
 62
     3
 48
0.125
100
AcDbPolyline
 90
        2
 70
   128
 43
0.0
 10
49.25228904657673
 20
5.656683438343537
 10
49.25228904657673
 20
5.656683438343537
  0
LWPOLYLINE
  5
1D9
330
A
100
AcDbEntity
  8
DEFPOINTS
  6
CONTINUOUS
 62
     3
 48
0.125
100
AcDbPolyline
 90
        2
 70
   128
 43
0.0
 10
49.76191809655701
 20
5.656683438343537
 10
49.76191809655701
 20
5.656683438343537
  0
LWPOLYLINE
  5
1DD
330
A
100
AcDbEntity
  8
DEFPOINTS
  6
CONTINUOUS
 62
     3
 48
0.125
100
AcDbPolyline
 90
        2
 70
   128
 43
0.0
 10
49.76191809655701
 20
5.656683438343537
 10
49.76191809655701
 20
5.656683438343537
  0
LWPOLYLINE
  5
1E1
330
A
100
AcDbEntity
  8
DEFPOINTS
  6
CONTINUOUS
 62
     3
 48
0.125
100
AcDbPolyline
 90
        2
 70
   128
 43
0.0
 10
51.17245623261503
 20
4.499153186602926
 10
51.17245623261503
 20
4.499153186602926
  0
LWPOLYLINE
  5
1E5
330
A
100
AcDbEntity
  8
DEFPOINTS
  6
CONTINUOUS
 62
     3
 48
0.125
100
AcDbPolyline
 90
        2
 70
   128
 43
0.0
 10
51.17245623261503
 20
4.499153186602926
 10
51.17245623261503
 20
4.499153186602926
  0
LWPOLYLINE
  5
1E9
330
A
100
AcDbEntity
  8
DEFPOINTS
  6
CONTINUOUS
 62
     3
 48
0.125
100
AcDbPolyline
 90
        2
 70
   128
 43
0.0
 10
53.08046432096824
 20
6.814213690084152
 10
53.08046432096824
 20
6.814213690084152
  0
LWPOLYLINE
  5
1ED
330
A
100
AcDbEntity
  8
DEFPOINTS
  6
CONTINUOUS
 62
     3
 48
0.125
100
AcDbPolyline
 90
        2
 70
   128
 43
0.0
 10
53.08046432096824
 20
6.814213690084152
 10
53.08046432096824
 20
6.814213690084152
  0
LWPOLYLINE
  5
1F1
330
A
100
AcDbEntity
  8
DEFPOINTS
  6
CONTINUOUS
 62
     3
 48
0.125
100
AcDbPolyline
 90
        2
 70
   128
 43
0.0
 10
48.37728904657673
 20
5.281183438343538
 10
48.37728904657673
 20
5.281183438343538
  0
LWPOLYLINE
  5
1F5
330
A
100
AcDbEntity
  8
DEFPOINTS
  6
CONTINUOUS
 62
     3
 48
0.125
100
AcDbPolyline
 90
        2
 70
   128
 43
0.0
 10
48.37728904657673
 20
5.281183438343538
 10
48.37728904657673
 20
5.281183438343538
  0
LWPOLYLINE
  5
1F9
330
A
100
AcDbEntity
  8
DEFPOINTS
  6
CONTINUOUS
 62
     3
 48
0.125
100
AcDbPolyline
 90
        2
 70
   128
 43
0.0
 10
49.12728904657672
 20
5.281183438343538
 10
49.12728904657672
 20
5.281183438343538
  0
LWPOLYLINE
  5
1FD
330
A
100
AcDbEntity
  8
DEFPOINTS
  6
CONTINUOUS
 62
     3
 48
0.125
100
AcDbPolyline
 90
        2
 70
   128
 43
0.0
 10
49.12728904657672
 20
5.281183438343538
 10
49.12728904657672
 20
5.281183438343538
  0
LWPOLYLINE
  5
201
330
A
100
AcDbEntity
  8
DEFPOINTS
  6
CONTINUOUS
 62
     3
 48
0.125
100
AcDbPolyline
 90
        2
 70
   128
 43
0.0
 10
49.12728904657672
 20
4.407284860390504
 10
49.12728904657672
 20
4.407284860390504
  0
LWPOLYLINE
  5
205
330
A
100
AcDbEntity
  8
DEFPOINTS
  6
CONTINUOUS
 62
     3
 48
0.125
100
AcDbPolyline
 90
        2
 70
   128
 43
0.0
 10
49.12728904657672
 20
4.407284860390504
 10
49.12728904657672
 20
4.407284860390504
  0
LWPOLYLINE
  5
209
330
A
100
AcDbEntity
  8
DEFPOINTS
  6
CONTINUOUS
 62
     3
 48
0.125
100
AcDbPolyline
 90
        2
 70
   128
 43
0.0
 10
45.73653157252336
 20
7.151757728659655
 10
45.73653157252336
 20
7.151757728659655
  0
LWPOLYLINE
  5
20D
330
A
100
AcDbEntity
  8
DEFPOINTS
  6
CONTINUOUS
 62
     3
 48
0.125
100
AcDbPolyline
 90
        2
 70
   128
 43
0.0
 10
45.73653157252336
 20
7.151757728659655
 10
45.73653157252336
 20
7.151757728659655
  0
LWPOLYLINE
  5
211
330
A
100
AcDbEntity
  8
DEFPOINTS
  6
CONTINUOUS
 62
     3
 48
0.125
100
AcDbPolyline
 90
        2
 70
   128
 43
0.0
 10
48.75237200986124
 20
6.771948306810276
 10
48.75237200986124
 20
6.771948306810276
  0
LWPOLYLINE
  5
215
330
A
100
AcDbEntity
  8
DEFPOINTS
  6
CONTINUOUS
 62
     3
 48
0.125
100
AcDbPolyline
 90
        2
 70
   128
 43
0.0
 10
48.75237200986124
 20
6.771948306810276
 10
48.75237200986124
 20
6.771948306810276
  0
LWPOLYLINE
  5
219
330
A
100
AcDbEntity
  8
DEFPOINTS
  6
CONTINUOUS
 62
     3
 48
0.125
100
AcDbPolyline
 90
        2
 70
   128
 43
0.0
 10
48.75237200986124
 20
7.395325080183306
 10
48.75237200986124
 20
7.395325080183306
  0
LWPOLYLINE
  5
21D
330
A
100
AcDbEntity
  8
DEFPOINTS
  6
CONTINUOUS
 62
     3
 48
0.125
100
AcDbPolyline
 90
        2
 70
   128
 43
0.0
 10
48.75237200986124
 20
7.395325080183306
 10
48.75237200986124
 20
7.395325080183306
  0
LWPOLYLINE
  5
221
330
A
100
AcDbEntity
  8
DEFPOINTS
  6
CONTINUOUS
 62
     3
 48
0.125
100
AcDbPolyline
 90
        2
 70
   128
 43
0.0
 10
51.31231500963736
 20
6.733714757239463
 10
51.31231500963736
 20
6.733714757239463
  0
LWPOLYLINE
  5
225
330
A
100
AcDbEntity
  8
DEFPOINTS
  6
CONTINUOUS
 62
     3
 48
0.125
100
AcDbPolyline
 90
        2
 70
   128
 43
0.0
 10
51.31231500963736
 20
6.733714757239463
 10
51.31231500963736
 20
6.733714757239463
  0
LWPOLYLINE
  5
229
330
A
100
AcDbEntity
  8
DEFPOINTS
  6
CONTINUOUS
 62
     3
 48
0.125
100
AcDbPolyline
 90
        2
 70
   128
 43
0.0
 10
52.93731500963737
 20
6.733714757239463
 10
52.93731500963737
 20
6.733714757239463
  0
LWPOLYLINE
  5
22D
330
A
100
AcDbEntity
  8
DEFPOINTS
  6
CONTINUOUS
 62
     3
 48
0.125
100
AcDbPolyline
 90
        2
 70
   128
 43
0.0
 10
52.93731500963737
 20
6.733714757239463
 10
52.93731500963737
 20
6.733714757239463
  0
LWPOLYLINE
  5
231
330
A
100
AcDbEntity
  8
DEFPOINTS
  6
CONTINUOUS
 62
     3
 48
0.125
100
AcDbPolyline
 90
        2
 70
   128
 43
0.0
 10
52.93731500963737
 20
7.313663881000461
 10
52.93731500963737
 20
7.313663881000461
  0
LWPOLYLINE
  5
235
330
A
100
AcDbEntity
  8
DEFPOINTS
  6
CONTINUOUS
 62
     3
 48
0.125
100
AcDbPolyline
 90
        2
 70
   128
 43
0.0
 10
52.93731500963737
 20
7.313663881000461
 10
52.93731500963737
 20
7.313663881000461
  0
LWPOLYLINE
  5
239
330
A
100
AcDbEntity
  8
DEFPOINTS
  6
CONTINUOUS
 62
     3
 48
0.125
100
AcDbPolyline
 90
        2
 70
   128
 43
0.0
 10
50.87596027679161
 20
6.841396217070682
 10
50.87596027679161
 20
6.841396217070682
  0
LWPOLYLINE
  5
23D
330
A
100
AcDbEntity
  8
DEFPOINTS
  6
CONTINUOUS
 62
     3
 48
0.125
100
AcDbPolyline
 90
        2
 70
   128
 43
0.0
 10
50.87596027679161
 20
6.841396217070682
 10
50.87596027679161
 20
6.841396217070682
  0
LWPOLYLINE
  5
241
330
A
100
AcDbEntity
  8
DEFPOINTS
  6
CONTINUOUS
 62
     3
 48
0.125
100
AcDbPolyline
 90
        2
 70
   128
 43
0.0
 10
53.37596027679162
 20
6.784850815442567
 10
53.37596027679162
 20
6.784850815442567
  0
LWPOLYLINE
  5
245
330
A
100
AcDbEntity
  8
DEFPOINTS
  6
CONTINUOUS
 62
     3
 48
0.125
100
AcDbPolyline
 90
        2
 70
   128
 43
0.0
 10
53.37596027679162
 20
6.784850815442567
 10
53.37596027679162
 20
6.784850815442567
  0
LWPOLYLINE
  5
249
330
A
100
AcDbEntity
  8
DEFPOINTS
  6
CONTINUOUS
 62
     3
 48
0.125
100
AcDbPolyline
 90
        2
 70
   128
 43
0.0
 10
53.37596027679162
 20
7.669116572728261
 10
53.37596027679162
 20
7.669116572728261
  0
LWPOLYLINE
  5
24D
330
A
100
AcDbEntity
  8
DEFPOINTS
  6
CONTINUOUS
 62
     3
 48
0.125
100
AcDbPolyline
 90
        2
 70
   128
 43
0.0
 10
53.37596027679162
 20
7.669116572728261
 10
53.37596027679162
 20
7.669116572728261
  0
TEXT
  5
25E
330
A
100
AcDbEntity
  8
ADPDIM
100
AcDbText
 10
43.78297505971906
 20
3.287153580214644
 30
0.0
 40
0.125
  1
J U L I U S  B L U M  &  C O . ,  I N C .      ( 8 0 0 )  5 2 6 - 6 2 9 3        W W W . J U L I U S B L U M . C O M        P A R T  N o .  8 0 3
 41
1.25
  7
ARIAL_WIDE
 72
     1
 11
50.21768259723612
 21
3.412153580214644
 31
0.0
100
AcDbText
 73
     3
  0
ENDSEC
  0
SECTION
  2
OBJECTS
  0
DICTIONARY
  5
19
330
0
100
AcDbDictionary
  3
ACAD_GROUP
350
1A
  3
ACAD_LAYOUT
350
256
  3
ACAD_MLINESTYLE
350
1B
  3
ACAD_PLOTSETTINGS
350
257
  3
ACAD_PLOTSTYLENAME
350
254
  3
ACDBHEADERROUNDTRIPXREC
350
3BE
  3
ACDBVARIABLEDICTIONARY
350
2C0
  0
DICTIONARY
  5
2B4
330
A
100
AcDbDictionary
280
     1
  3
ACAD_LAYOUTSELFREF
360
3DE
  0
DICTIONARY
  5
2B6
330
B
100
AcDbDictionary
280
     1
  3
ACAD_LAYOUTSELFREF
360
3DF
  0
DICTIONARY
  5
1A
102
{ACAD_REACTORS
330
19
102
}
330
19
100
AcDbDictionary
  0
DICTIONARY
  5
256
102
{ACAD_REACTORS
330
19
102
}
330
19
100
AcDbDictionary
  0
DICTIONARY
  5
1B
102
{ACAD_REACTORS
330
19
102
}
330
19
100
AcDbDictionary
  3
STANDARD
350
1C
  0
DICTIONARY
  5
257
102
{ACAD_REACTORS
330
19
102
}
330
19
100
AcDbDictionary
  0
ACDBDICTIONARYWDFLT
  5
254
102
{ACAD_REACTORS
330
19
102
}
330
19
100
AcDbDictionary
281
     1
  3
Normal
350
255
100
AcDbDictionaryWithDefault
340
255
  0
DICTIONARY
  5
3BE
102
{ACAD_REACTORS
330
19
102
}
330
19
100
AcDbDictionary
  3
CEPSNTYPE
350
3C8
  3
FINGERPRINTGUID
350
3C9
  3
HYPERLINKBASE
350
3C1
  3
INSUNITS
350
3C7
  3
LAYOUTDICT
350
3C3
  3
LWETCUNION
350
3C6
  3
PLOTSETDICT
350
3C4
  3
PLOTSTYLNAMDICT
350
3C5
  3
PSVPSCALE
350
3CB
  3
PUCSBASE
350
3CE
  3
PUCSORGBACK
350
3D4
  3
PUCSORGBOTTOM
350
3D0
  3
PUCSORGFRONT
350
3D3
  3
PUCSORGLEFT
350
3D1
  3
PUCSORGRIGHT
350
3D2
  3
PUCSORGTOP
350
3CF
  3
PUCSORTHOREF
350
3CC
  3
PUCSORTHOVIEW
350
3CD
  3
STYLESHEET
350
3C2
  3
TSTACKALIGN
350
3BF
  3
TSTACKSIZE
350
3C0
  3
UCSBASE
350
3D7
  3
UCSORGBACK
350
3DD
  3
UCSORGBOTTOM
350
3D9
  3
UCSORGFRONT
350
3DC
  3
UCSORGLEFT
350
3DA
  3
UCSORGRIGHT
350
3DB
  3
UCSORGTOP
350
3D8
  3
UCSORTHOREF
350
3D5
  3
UCSORTHOVIEW
350
3D6
  3
VERSIONGUID
350
3CA
  0
DICTIONARY
  5
2C0
102
{ACAD_REACTORS
330
19
102
}
330
19
100
AcDbDictionary
  3
DIMASSOC
350
2C1
  0
XRECORD
  5
3DE
102
{ACAD_REACTORS
330
2B4
102
}
330
2B4
100
AcDbXrecord
340
A
  0
XRECORD
  5
3DF
102
{ACAD_REACTORS
330
2B6
102
}
330
2B6
100
AcDbXrecord
340
B
  0
MLINESTYLE
  5
1C
102
{ACAD_REACTORS
330
1B
102
}
330
1B
100
AcDbMlineStyle
  2
STANDARD
 70
     0
  3

 62
     0
 51
90.00000000000019
 52
90.00000000000019
 71
     2
 49
0.5
 62
   256
  6
BYLAYER
 49
-0.5
 62
   256
  6
BYLAYER
  0
ACDBPLACEHOLDER
  5
255
102
{ACAD_REACTORS
330
254
102
}
330
254
100
AcDbPlaceHolder
280
     0
  0
XRECORD
  5
3C8
102
{ACAD_REACTORS
330
3BE
102
}
330
3BE
100
AcDbXrecord
 90
        0
  0
XRECORD
  5
3C9
102
{ACAD_REACTORS
330
3BE
102
}
330
3BE
100
AcDbXrecord
  1
{F5E7832F-291F-421F-8920-1A6CFDB4DB33}
  0
XRECORD
  5
3C1
102
{ACAD_REACTORS
330
3BE
102
}
330
3BE
100
AcDbXrecord
  1

  0
XRECORD
  5
3C7
102
{ACAD_REACTORS
330
3BE
102
}
330
3BE
100
AcDbXrecord
 90
        0
  0
XRECORD
  5
3C3
102
{ACAD_REACTORS
330
3BE
102
}
330
3BE
100
AcDbXrecord
340
256
  0
XRECORD
  5
3C6
102
{ACAD_REACTORS
330
3BE
102
}
330
3BE
100
AcDbXrecord
 90
    14877
  0
XRECORD
  5
3C4
102
{ACAD_REACTORS
330
3BE
102
}
330
3BE
100
AcDbXrecord
340
257
  0
XRECORD
  5
3C5
102
{ACAD_REACTORS
330
3BE
102
}
330
3BE
100
AcDbXrecord
340
254
  0
XRECORD
  5
3CB
102
{ACAD_REACTORS
330
3BE
102
}
330
3BE
100
AcDbXrecord
 40
0.0
  0
XRECORD
  5
3CE
102
{ACAD_REACTORS
330
3BE
102
}
330
3BE
100
AcDbXrecord
340
0
  0
XRECORD
  5
3D4
102
{ACAD_REACTORS
330
3BE
102
}
330
3BE
100
AcDbXrecord
 10
0.0
 20
0.0
 30
0.0
  0
XRECORD
  5
3D0
102
{ACAD_REACTORS
330
3BE
102
}
330
3BE
100
AcDbXrecord
 10
0.0
 20
0.0
 30
0.0
  0
XRECORD
  5
3D3
102
{ACAD_REACTORS
330
3BE
102
}
330
3BE
100
AcDbXrecord
 10
0.0
 20
0.0
 30
0.0
  0
XRECORD
  5
3D1
102
{ACAD_REACTORS
330
3BE
102
}
330
3BE
100
AcDbXrecord
 10
0.0
 20
0.0
 30
0.0
  0
XRECORD
  5
3D2
102
{ACAD_REACTORS
330
3BE
102
}
330
3BE
100
AcDbXrecord
 10
0.0
 20
0.0
 30
0.0
  0
XRECORD
  5
3CF
102
{ACAD_REACTORS
330
3BE
102
}
330
3BE
100
AcDbXrecord
 10
0.0
 20
0.0
 30
0.0
  0
XRECORD
  5
3CC
102
{ACAD_REACTORS
330
3BE
102
}
330
3BE
100
AcDbXrecord
340
0
  0
XRECORD
  5
3CD
102
{ACAD_REACTORS
330
3BE
102
}
330
3BE
100
AcDbXrecord
 70
     0
  0
XRECORD
  5
3C2
102
{ACAD_REACTORS
330
3BE
102
}
330
3BE
100
AcDbXrecord
  1

  0
XRECORD
  5
3BF
102
{ACAD_REACTORS
330
3BE
102
}
330
3BE
100
AcDbXrecord
 90
        1
  0
XRECORD
  5
3C0
102
{ACAD_REACTORS
330
3BE
102
}
330
3BE
100
AcDbXrecord
 90
       70
  0
XRECORD
  5
3D7
102
{ACAD_REACTORS
330
3BE
102
}
330
3BE
100
AcDbXrecord
340
0
  0
XRECORD
  5
3DD
102
{ACAD_REACTORS
330
3BE
102
}
330
3BE
100
AcDbXrecord
 10
0.0
 20
0.0
 30
0.0
  0
XRECORD
  5
3D9
102
{ACAD_REACTORS
330
3BE
102
}
330
3BE
100
AcDbXrecord
 10
0.0
 20
0.0
 30
0.0
  0
XRECORD
  5
3DC
102
{ACAD_REACTORS
330
3BE
102
}
330
3BE
100
AcDbXrecord
 10
0.0
 20
0.0
 30
0.0
  0
XRECORD
  5
3DA
102
{ACAD_REACTORS
330
3BE
102
}
330
3BE
100
AcDbXrecord
 10
0.0
 20
0.0
 30
0.0
  0
XRECORD
  5
3DB
102
{ACAD_REACTORS
330
3BE
102
}
330
3BE
100
AcDbXrecord
 10
0.0
 20
0.0
 30
0.0
  0
XRECORD
  5
3D8
102
{ACAD_REACTORS
330
3BE
102
}
330
3BE
100
AcDbXrecord
 10
0.0
 20
0.0
 30
0.0
  0
XRECORD
  5
3D5
102
{ACAD_REACTORS
330
3BE
102
}
330
3BE
100
AcDbXrecord
340
0
  0
XRECORD
  5
3D6
102
{ACAD_REACTORS
330
3BE
102
}
330
3BE
100
AcDbXrecord
 70
     0
  0
XRECORD
  5
3CA
102
{ACAD_REACTORS
330
3BE
102
}
330
3BE
100
AcDbXrecord
  1
{AF76866C-0C29-4FEE-A597-FFADAEECDCD6}
  0
DICTIONARYVAR
  5
2C1
102
{ACAD_REACTORS
330
2C0
102
}
330
2C0
100
DictionaryVariables
280
     0
  1
1
  0
ENDSEC
  0
EOF
