  0
SECTION
  2
HEADER
  9
$ACADVER
  1
AC1014
  9
$ACADMAINTVER
 70
     9
  9
$DWGCODEPAGE
  3
ANSI_1252
  9
$INSBASE
 10
0.0
 20
0.0
 30
0.0
  9
$EXTMIN
 10
11.11524431548419
 20
-12.17300949787277
 30
0.0
  9
$EXTMAX
 10
31.27421217019088
 20
-0.2689270711662093
 30
0.0
  9
$LIMMIN
 10
0.0
 20
0.0
  9
$LIMMAX
 10
0.0
 20
0.0
  9
$ORTHOMODE
 70
     1
  9
$REGENMODE
 70
     1
  9
$FILLMODE
 70
     1
  9
$QTEXTMODE
 70
     0
  9
$MIRRTEXT
 70
     1
  9
$DRAGMODE
 70
     0
  9
$LTSCALE
 40
1.0
  9
$OSMODE
 70
    37
  9
$ATTMODE
 70
     1
  9
$TEXTSIZE
 40
0.0
  9
$TRACEWID
 40
0.05
  9
$TEXTSTYLE
  7
STANDARD
  9
$CLAYER
  8
0
  9
$CELTYPE
  6
CONTINUOUS
  9
$CECOLOR
 62
   256
  9
$CELTSCALE
 40
1.0
  9
$DELOBJ
 70
     1
  9
$DISPSILH
 70
     0
  9
$DIMSCALE
 40
1.0
  9
$DIMASZ
 40
0.18
  9
$DIMEXO
 40
0.0625
  9
$DIMDLI
 40
0.38
  9
$DIMRND
 40
0.0
  9
$DIMDLE
 40
0.0
  9
$DIMEXE
 40
0.18
  9
$DIMTP
 40
0.0
  9
$DIMTM
 40
0.0
  9
$DIMTXT
 40
0.18
  9
$DIMCEN
 40
0.09
  9
$DIMTSZ
 40
0.0
  9
$DIMTOL
 70
     0
  9
$DIMLIM
 70
     0
  9
$DIMTIH
 70
     1
  9
$DIMTOH
 70
     1
  9
$DIMSE1
 70
     0
  9
$DIMSE2
 70
     0
  9
$DIMTAD
 70
     0
  9
$DIMZIN
 70
     0
  9
$DIMBLK
  1

  9
$DIMASO
 70
     1
  9
$DIMSHO
 70
     1
  9
$DIMPOST
  1

  9
$DIMAPOST
  1

  9
$DIMALT
 70
     0
  9
$DIMALTD
 70
     2
  9
$DIMALTF
 40
25.4
  9
$DIMLFAC
 40
1.0
  9
$DIMTOFL
 70
     0
  9
$DIMTVP
 40
0.0
  9
$DIMTIX
 70
     0
  9
$DIMSOXD
 70
     0
  9
$DIMSAH
 70
     0
  9
$DIMBLK1
  1

  9
$DIMBLK2
  1

  9
$DIMSTYLE
  2
STANDARD
  9
$DIMCLRD
 70
     0
  9
$DIMCLRE
 70
     0
  9
$DIMCLRT
 70
     0
  9
$DIMTFAC
 40
1.0
  9
$DIMGAP
 40
0.09
  9
$DIMJUST
 70
     0
  9
$DIMSD1
 70
     0
  9
$DIMSD2
 70
     0
  9
$DIMTOLJ
 70
     1
  9
$DIMTZIN
 70
     0
  9
$DIMALTZ
 70
     0
  9
$DIMALTTZ
 70
     0
  9
$DIMFIT
 70
     3
  9
$DIMUPT
 70
     0
  9
$DIMUNIT
 70
     2
  9
$DIMDEC
 70
     4
  9
$DIMTDEC
 70
     4
  9
$DIMALTU
 70
     2
  9
$DIMALTTD
 70
     2
  9
$DIMTXSTY
  7
STANDARD
  9
$DIMAUNIT
 70
     0
  9
$LUNITS
 70
     2
  9
$LUPREC
 70
     4
  9
$SKETCHINC
 40
0.1
  9
$FILLETRAD
 40
0.0
  9
$AUNITS
 70
     0
  9
$AUPREC
 70
     0
  9
$MENU
  1
acad
  9
$ELEVATION
 40
0.0
  9
$PELEVATION
 40
0.0
  9
$THICKNESS
 40
0.0
  9
$LIMCHECK
 70
     0
  9
$BLIPMODE
 70
     0
  9
$CHAMFERA
 40
0.0
  9
$CHAMFERB
 40
0.0
  9
$CHAMFERC
 40
0.0
  9
$CHAMFERD
 40
0.0
  9
$SKPOLY
 70
     0
  9
$TDCREATE
 40
2444971.791666666
  9
$TDUPDATE
 40
2452297.074776284
  9
$TDINDWG
 40
0.0169927199
  9
$TDUSRTIMER
 40
0.0169927199
  9
$USRTIMER
 70
     1
  9
$ANGBASE
 50
0.0
  9
$ANGDIR
 70
     0
  9
$PDMODE
 70
     0
  9
$PDSIZE
 40
0.0
  9
$PLINEWID
 40
0.0
  9
$COORDS
 70
     2
  9
$SPLFRAME
 70
     0
  9
$SPLINETYPE
 70
     6
  9
$SPLINESEGS
 70
     8
  9
$ATTDIA
 70
     0
  9
$ATTREQ
 70
     1
  9
$HANDLING
 70
 22529
  9
$HANDSEED
  5
26B
  9
$SURFTAB1
 70
     6
  9
$SURFTAB2
 70
     6
  9
$SURFTYPE
 70
     6
  9
$SURFU
 70
     6
  9
$SURFV
 70
     6
  9
$UCSNAME
  2

  9
$UCSORG
 10
0.0
 20
0.0
 30
0.0
  9
$UCSXDIR
 10
1.0
 20
0.0
 30
0.0
  9
$UCSYDIR
 10
0.0
 20
1.0
 30
0.0
  9
$PUCSNAME
  2

  9
$PUCSORG
 10
0.0
 20
0.0
 30
0.0
  9
$PUCSXDIR
 10
1.0
 20
0.0
 30
0.0
  9
$PUCSYDIR
 10
0.0
 20
1.0
 30
0.0
  9
$USERI1
 70
     0
  9
$USERI2
 70
     0
  9
$USERI3
 70
     0
  9
$USERI4
 70
     0
  9
$USERI5
 70
     0
  9
$USERR1
 40
0.0
  9
$USERR2
 40
0.0
  9
$USERR3
 40
0.0
  9
$USERR4
 40
0.0
  9
$USERR5
 40
0.0
  9
$WORLDVIEW
 70
     1
  9
$SHADEDGE
 70
     3
  9
$SHADEDIF
 70
    70
  9
$TILEMODE
 70
     1
  9
$MAXACTVP
 70
    16
  9
$PINSBASE
 10
0.0
 20
0.0
 30
0.0
  9
$PLIMCHECK
 70
     0
  9
$PEXTMIN
 10
1.000000000000000E+20
 20
1.000000000000000E+20
 30
1.000000000000000E+20
  9
$PEXTMAX
 10
-1.000000000000000E+20
 20
-1.000000000000000E+20
 30
-1.000000000000000E+20
  9
$PLIMMIN
 10
0.0
 20
0.0
  9
$PLIMMAX
 10
12.0
 20
9.0
  9
$UNITMODE
 70
     0
  9
$VISRETAIN
 70
     0
  9
$PLINEGEN
 70
     0
  9
$PSLTSCALE
 70
     0
  9
$TREEDEPTH
 70
  3020
  9
$PICKSTYLE
 70
     1
  9
$CMLSTYLE
  2
STANDARD
  9
$CMLJUST
 70
     0
  9
$CMLSCALE
 40
1.0
  9
$PROXYGRAPHICS
 70
     1
  9
$MEASUREMENT
 70
     0
  0
ENDSEC
  0
SECTION
  2
CLASSES
  0
CLASS
  1
LWPOLYLINE
  2
AcDbPolyline
  3
AutoCAD 2000
 90
        0
280
     0
281
     1
  0
CLASS
  1
IMAGE
  2
AcDbRasterImage
  3
ISM
 90
      127
280
     0
281
     1
  0
CLASS
  1
OLE2FRAME
  2
AcDbOle2Frame
  3
AutoCAD 2000
 90
        0
280
     0
281
     1
  0
CLASS
  1
HATCH
  2
AcDbHatch
  3
AutoCAD 2000
 90
        0
280
     0
281
     1
  0
CLASS
  1
DICTIONARYVAR
  2
AcDbDictionaryVar
  3
AutoCAD 2000
 90
        0
280
     0
281
     0
  0
CLASS
  1
RASTERVARIABLES
  2
AcDbRasterVariables
  3
ISM
 90
        0
280
     0
281
     0
  0
CLASS
  1
IMAGEDEF
  2
AcDbRasterImageDef
  3
ISM
 90
        0
280
     0
281
     0
  0
CLASS
  1
IMAGEDEF_REACTOR
  2
AcDbRasterImageDefReactor
  3
ISM
 90
        1
280
     0
281
     0
  0
CLASS
  1
IDBUFFER
  2
AcDbIdBuffer
  3
AutoCAD 2000
 90
        0
280
     0
281
     0
  0
CLASS
  1
SPATIAL_FILTER
  2
AcDbSpatialFilter
  3
AutoCAD 2000
 90
        0
280
     0
281
     0
  0
CLASS
  1
XRECORD
  2
AcDbXrecord
  3
AutoCAD 2000
 90
        0
280
     0
281
     0
  0
CLASS
  1
SORTENTSTABLE
  2
AcDbSortentsTable
  3
AutoCAD 2000
 90
        0
280
     0
281
     0
  0
CLASS
  1
LAYER_INDEX
  2
AcDbLayerIndex
  3
AutoCAD 2000
 90
        0
280
     0
281
     0
  0
CLASS
  1
SPATIAL_INDEX
  2
AcDbSpatialIndex
  3
AutoCAD 2000
 90
        0
280
     0
281
     0
  0
CLASS
  1
OBJECT_PTR
  2
CAseDLPNTableRecord
  3
ASE-LPNTableRecord
 90
        1
280
     0
281
     0
  0
CLASS
  1
ACDBDICTIONARYWDFLT
  2
AcDbDictionaryWithDefault
  3
AutoCAD 2000
 90
        0
280
     0
281
     0
  0
CLASS
  1
ACDBPLACEHOLDER
  2
AcDbPlaceHolder
  3
AutoCAD 2000
 90
        0
280
     0
281
     0
  0
CLASS
  1
LAYOUT
  2
AcDbLayout
  3
AutoCAD 2000
 90
        0
280
     0
281
     0
  0
CLASS
  1
LONG_TRANSACTION
  2
AcDbLongTransaction
  3
AutoCAD 2000
 90
        0
280
     0
281
     0
  0
CLASS
  1
LWPOLYLINE
  2
AcDbPolyline
  3
AutoCAD 2000
 90
        0
280
     0
281
     1
  0
CLASS
  1
HATCH
  2
AcDbHatch
  3
AutoCAD 2000
 90
        0
280
     0
281
     1
  0
CLASS
  1
XRECORD
  2
AcDbXrecord
  3
AutoCAD 2000
 90
        0
280
     0
281
     0
  0
CLASS
  1
LONG_TRANSACTION
  2
AcDbLongTransaction
  3
AutoCAD 2000
 90
        0
280
     0
281
     0
  0
CLASS
  1
LWPOLYLINE
  2
AcDbPolyline
  3
AutoCAD 2000
 90
        0
280
     0
281
     1
  0
CLASS
  1
HATCH
  2
AcDbHatch
  3
AutoCAD 2000
 90
        0
280
     0
281
     1
  0
CLASS
  1
XRECORD
  2
AcDbXrecord
  3
AutoCAD 2000
 90
        0
280
     0
281
     0
  0
CLASS
  1
LONG_TRANSACTION
  2
AcDbLongTransaction
  3
AutoCAD 2000
 90
        0
280
     0
281
     0
  0
CLASS
  1
LWPOLYLINE
  2
AcDbPolyline
  3
AutoCAD 2000
 90
        0
280
     0
281
     1
  0
CLASS
  1
HATCH
  2
AcDbHatch
  3
AutoCAD 2000
 90
        0
280
     0
281
     1
  0
CLASS
  1
XRECORD
  2
AcDbXrecord
  3
AutoCAD 2000
 90
        0
280
     0
281
     0
  0
CLASS
  1
LONG_TRANSACTION
  2
AcDbLongTransaction
  3
AutoCAD 2000
 90
        0
280
     0
281
     0
  0
CLASS
  1
LWPOLYLINE
  2
AcDbPolyline
  3
AutoCAD 2000
 90
        0
280
     0
281
     1
  0
CLASS
  1
HATCH
  2
AcDbHatch
  3
AutoCAD 2000
 90
        0
280
     0
281
     1
  0
CLASS
  1
XRECORD
  2
AcDbXrecord
  3
AutoCAD 2000
 90
        0
280
     0
281
     0
  0
CLASS
  1
LONG_TRANSACTION
  2
AcDbLongTransaction
  3
AutoCAD 2000
 90
        0
280
     0
281
     0
  0
CLASS
  1
LWPOLYLINE
  2
AcDbPolyline
  3
AutoCAD 2000
 90
        0
280
     0
281
     1
  0
CLASS
  1
HATCH
  2
AcDbHatch
  3
AutoCAD 2000
 90
        0
280
     0
281
     1
  0
CLASS
  1
XRECORD
  2
AcDbXrecord
  3
AutoCAD 2000
 90
        0
280
     0
281
     0
  0
ENDSEC
  0
SECTION
  2
TABLES
  0
TABLE
  2
VPORT
  5
7
330
0
100
AcDbSymbolTable
 70
     3
  0
VPORT
  5
2D
330
7
100
AcDbSymbolTableRecord
100
AcDbViewportTableRecord
  2
DCADVPORT
 70
     0
 10
14.37061021726612
 20
-11.41755385651543
 11
27.11623193471878
 21
-0.2689270711662093
 12
6.209999999999999
 22
9.019999999999999
 13
0.0
 23
0.0
 14
1.0
 24
1.0
 15
0.0
 25
0.0
 16
0.0
 26
0.0
 36
1.0
 17
0.0
 27
0.0
 37
0.0
 40
18.04
 41
0.688564
 42
50.0
 43
1.0
 44
1.0
 50
0.0
 51
0.0
 71
     0
 72
   100
 73
     1
 74
     1
 75
     0
 76
     0
 77
     0
 78
     0
  0
VPORT
  5
248
330
7
100
AcDbSymbolTableRecord
100
AcDbViewportTableRecord
  2
*ACTIVE
 70
     0
 10
0.0
 20
0.0
 11
1.0
 21
1.0
 12
21.21036441103754
 22
-6.221350085182073
 13
0.0
 23
0.0
 14
1.0
 24
1.0
 15
0.0
 25
0.0
 16
0.0
 26
0.0
 36
1.0
 17
0.0
 27
0.0
 37
0.0
 40
12.91935935245024
 41
1.570528967254408
 42
50.0
 43
0.0
 44
0.0
 50
0.0
 51
0.0
 71
     0
 72
   100
 73
     1
 74
     1
 75
     0
 76
     0
 77
     0
 78
     0
  0
ENDTAB
  0
TABLE
  2
LTYPE
  5
4
330
0
100
AcDbSymbolTable
 70
     2
  0
LTYPE
  5
11
330
4
100
AcDbSymbolTableRecord
100
AcDbLinetypeTableRecord
  2
BYBLOCK
 70
     0
  3

 72
    65
 73
     0
 40
0.0
  0
LTYPE
  5
12
330
4
100
AcDbSymbolTableRecord
100
AcDbLinetypeTableRecord
  2
BYLAYER
 70
     0
  3

 72
    65
 73
     0
 40
0.0
  0
LTYPE
  5
13
330
4
100
AcDbSymbolTableRecord
100
AcDbLinetypeTableRecord
  2
CONTINUOUS
 70
     0
  3
Solid line
 72
    65
 73
     0
 40
0.0
  0
LTYPE
  5
1E
330
4
100
AcDbSymbolTableRecord
100
AcDbLinetypeTableRecord
  2
CONTINUOUS
 70
     0
  3
Solid line
 72
    65
 73
     0
 40
0.0
  0
ENDTAB
  0
TABLE
  2
LAYER
  5
2
330
0
100
AcDbSymbolTable
 70
     4
  0
LAYER
  5
14
330
2
100
AcDbSymbolTableRecord
100
AcDbLayerTableRecord
  2
0
 70
     0
 62
     7
  6
CONTINUOUS
  0
LAYER
  5
2A
330
2
100
AcDbSymbolTableRecord
100
AcDbLayerTableRecord
  2
ADPDIM
 70
     0
 62
     3
  6
CONTINUOUS
  0
LAYER
  5
2B
330
2
100
AcDbSymbolTableRecord
100
AcDbLayerTableRecord
  2
ADP1DETAIL
 70
     0
 62
   250
  6
CONTINUOUS
  0
LAYER
  5
2C
330
2
100
AcDbSymbolTableRecord
100
AcDbLayerTableRecord
  2
DEFPOINTS
 70
     0
 62
   250
  6
CONTINUOUS
  0
ENDTAB
  0
TABLE
  2
STYLE
  5
3
330
0
100
AcDbSymbolTable
 70
     2
  0
STYLE
  5
17
330
3
100
AcDbSymbolTableRecord
100
AcDbTextStyleTableRecord
  2
STANDARD
 70
     0
 40
0.0
 41
1.0
 50
0.0
 71
     0
 42
0.0
  3
txt
  4

  0
STYLE
  5
E8
330
3
100
AcDbSymbolTableRecord
100
AcDbTextStyleTableRecord
  2
ARIAL_WIDE
 70
     0
 40
0.0
 41
1.25
 50
0.0
 71
     0
 42
0.2
  3
ARIAL.TTF
  4

1001
ACAD
1000
Arial
1071
       34
  0
ENDTAB
  0
TABLE
  2
VIEW
  5
5
330
0
100
AcDbSymbolTable
 70
     0
  0
ENDTAB
  0
TABLE
  2
UCS
  5
6
330
0
100
AcDbSymbolTable
 70
     0
  0
ENDTAB
  0
TABLE
  2
APPID
  5
8
330
0
100
AcDbSymbolTable
 70
     1
  0
APPID
  5
16
330
8
100
AcDbSymbolTableRecord
100
AcDbRegAppTableRecord
  2
ACAD
 70
     0
  0
ENDTAB
  0
TABLE
  2
DIMSTYLE
  5
9
330
0
100
AcDbSymbolTable
 70
     1
  0
DIMSTYLE
105
18
330
9
100
AcDbSymbolTableRecord
100
AcDbDimStyleTableRecord
  2
STANDARD
 70
     0
  3

  4

  5

  6

  7

 40
1.0
 41
0.18
 42
0.0625
 43
0.38
 44
0.18
 45
0.0
 46
0.0
 47
0.0
 48
0.0
140
0.18
141
0.09
142
0.0
143
25.4
144
1.0
145
0.0
146
1.0
147
0.09
 71
     0
 72
     0
 73
     1
 74
     1
 75
     0
 76
     0
 77
     0
 78
     0
170
     0
171
     2
172
     0
173
     0
174
     0
175
     0
176
     0
177
     0
178
     0
270
     2
271
     4
272
     4
273
     2
274
     2
340
17
275
     0
280
     0
281
     0
282
     0
283
     1
284
     0
285
     0
286
     0
287
     0
288
     0
  0
ENDTAB
  0
TABLE
  2
BLOCK_RECORD
  5
1
330
0
100
AcDbSymbolTable
 70
     0
  0
BLOCK_RECORD
  5
A
102
{ACAD_XDICTIONARY
360
13F
102
}
330
1
100
AcDbSymbolTableRecord
100
AcDbBlockTableRecord
  2
*MODEL_SPACE
  0
BLOCK_RECORD
  5
B
102
{ACAD_XDICTIONARY
360
141
102
}
330
1
100
AcDbSymbolTableRecord
100
AcDbBlockTableRecord
  2
*PAPER_SPACE
  0
ENDTAB
  0
ENDSEC
  0
SECTION
  2
BLOCKS
  0
BLOCK
  5
D
330
A
100
AcDbEntity
  8
0
100
AcDbBlockBegin
  2
*MODEL_SPACE
 70
     0
 10
0.0
 20
0.0
 30
0.0
  3
*MODEL_SPACE
  1

  0
ENDBLK
  5
E
330
A
100
AcDbEntity
  8
0
100
AcDbBlockEnd
  0
BLOCK
  5
F
330
B
100
AcDbEntity
 67
     1
  8
0
100
AcDbBlockBegin
  2
*PAPER_SPACE
 70
     0
 10
0.0
 20
0.0
 30
0.0
  3
*PAPER_SPACE
  1

  0
ENDBLK
  5
10
330
B
100
AcDbEntity
 67
     1
  8
0
100
AcDbBlockEnd
  0
ENDSEC
  0
SECTION
  2
ENTITIES
  0
ARC
  5
2E
330
A
100
AcDbEntity
  8
ADP1DETAIL
  6
CONTINUOUS
 62
     7
100
AcDbCircle
 10
-21.4027873678778
 20
-5.2751103075589
 30
0.0
 40
4.642769434830545
210
0.0
220
0.0
230
-1.0
100
AcDbArc
 50
226.1004461578078
 51
320.7936661867751
  0
ARC
  5
2F
330
A
100
AcDbEntity
  8
ADP1DETAIL
  6
CONTINUOUS
 62
     7
100
AcDbCircle
 10
-21.4027873678778
 20
-5.2751103075589
 30
0.0
 40
4.767769434830544
210
0.0
220
0.0
230
-1.0
100
AcDbArc
 50
226.0554114547812
 51
320.7720564655807
  0
LWPOLYLINE
  5
30
330
A
100
AcDbEntity
  8
ADP1DETAIL
  6
CONTINUOUS
 62
     7
100
AcDbPolyline
 90
        2
 70
   128
 43
0.0
 10
15.02381243503102
 20
-2.024473860642277
 10
15.02381243503102
 20
-4.302074010926693
  0
ARC
  5
34
330
A
100
AcDbEntity
  8
ADP1DETAIL
  6
CONTINUOUS
 62
     7
100
AcDbCircle
 10
-22.17571144432746
 20
-4.430365233632592
 30
0.0
 40
7.153049564835879
210
0.0
220
0.0
230
-1.0
100
AcDbArc
 50
319.3038347517928
 51
1.027665148385639
  0
ARC
  5
35
330
A
100
AcDbEntity
  8
ADP1DETAIL
  6
CONTINUOUS
 62
     7
100
AcDbCircle
 10
-21.40278736787774
 20
-5.275110307558836
 30
0.0
 40
6.017769434830543
210
0.0
220
0.0
230
-1.0
100
AcDbArc
 50
225.7123642102996
 51
320.6034217528936
  0
ARC
  5
36
330
A
100
AcDbEntity
  8
ADP1DETAIL
  6
CONTINUOUS
 62
     7
100
AcDbCircle
 10
-21.83704077874089
 20
-6.05405606200652
 30
0.0
 40
5.16220733337776
210
0.0
220
0.0
230
-1.0
100
AcDbArc
 50
157.1929286894008
 51
223.124844562175
  0
ARC
  5
37
330
A
100
AcDbEntity
  8
ADP1DETAIL
  6
CONTINUOUS
 62
     7
100
AcDbCircle
 10
-22.43709479393752
 20
-6.243064145206607
 30
0.0
 40
4.69997407295323
210
0.0
220
0.0
230
-1.0
100
AcDbArc
 50
99.35086533861554
 51
152.2271997629517
  0
ARC
  5
38
330
A
100
AcDbEntity
  8
ADP1DETAIL
  6
CONTINUOUS
 62
     7
100
AcDbCircle
 10
-22.87018005651673
 20
-5.179465481537977
 30
0.0
 40
3.589176600253982
210
0.0
220
0.0
230
-1.0
100
AcDbArc
 50
8.953469464364058
 51
95.28447311548063
  0
ARC
  5
39
330
A
100
AcDbEntity
  8
ADP1DETAIL
  6
CONTINUOUS
 62
     7
100
AcDbCircle
 10
-21.54633376766218
 20
-5.141266969968119
 30
0.0
 40
2.281731743437105
210
0.0
220
0.0
230
-1.0
100
AcDbArc
 50
267.6871024042162
 51
13.18343872921361
  0
LWPOLYLINE
  5
3A
330
A
100
AcDbEntity
  8
ADP1DETAIL
  6
CONTINUOUS
 62
     7
100
AcDbPolyline
 90
        2
 70
   128
 43
0.0
 10
14.89881243503102
 20
-2.024473860642277
 10
14.89881243503102
 20
-4.300957827707566
  0
ARC
  5
3E
330
A
100
AcDbEntity
  8
ADP1DETAIL
  6
CONTINUOUS
 62
     7
100
AcDbCircle
 10
-22.17571144432746
 20
-4.430365233632595
 30
0.0
 40
7.278049564835876
210
0.0
220
0.0
230
-1.0
100
AcDbArc
 50
319.3149863496641
 51
1.01880165346481
  0
ARC
  5
3F
330
A
100
AcDbEntity
  8
ADP1DETAIL
  6
CONTINUOUS
 62
     7
100
AcDbCircle
 10
-21.40278736787773
 20
-5.275110307558835
 30
0.0
 40
6.142769434830538
210
0.0
220
0.0
230
-1.0
100
AcDbArc
 50
225.6860551613107
 51
320.5901877768905
  0
ARC
  5
40
330
A
100
AcDbEntity
  8
ADP1DETAIL
  6
CONTINUOUS
 62
     7
100
AcDbCircle
 10
-21.83704077874089
 20
-6.05405606200652
 30
0.0
 40
5.287207333377763
210
0.0
220
0.0
230
-1.0
100
AcDbArc
 50
157.1342275694037
 51
223.1554623731873
  0
ARC
  5
41
330
A
100
AcDbEntity
  8
ADP1DETAIL
  6
CONTINUOUS
 62
     7
100
AcDbCircle
 10
-22.43709479393752
 20
-6.243064145206604
 30
0.0
 40
4.824974072953231
210
0.0
220
0.0
230
-1.0
100
AcDbArc
 50
99.2982756431453
 51
152.2915991984661
  0
ARC
  5
42
330
A
100
AcDbEntity
  8
ADP1DETAIL
  6
CONTINUOUS
 62
     7
100
AcDbCircle
 10
-22.87018005651674
 20
-5.179465481537983
 30
0.0
 40
3.714176600253981
210
0.0
220
0.0
230
-1.0
100
AcDbArc
 50
9.024493829391031
 51
95.35306412599258
  0
ARC
  5
43
330
A
100
AcDbEntity
  8
ADP1DETAIL
  6
CONTINUOUS
 62
     7
100
AcDbCircle
 10
-21.54556834545984
 20
-5.141465481071087
 30
0.0
 40
2.406031798017176
210
0.0
220
0.0
230
-1.0
100
AcDbArc
 50
267.9495791728966
 51
13.08198559376023
  0
ARC
  5
44
330
A
100
AcDbEntity
  8
ADP1DETAIL
  6
CONTINUOUS
 62
     7
100
AcDbCircle
 10
-22.17571144432747
 20
-4.430365233632699
 30
0.0
 40
5.778049564835878
210
0.0
220
0.0
230
-1.0
100
AcDbArc
 50
319.1474184634127
 51
1.143425831990725
  0
ARC
  5
45
330
A
100
AcDbEntity
  8
ADP1DETAIL
  6
CONTINUOUS
 62
     7
100
AcDbCircle
 10
-22.17571144432747
 20
-4.4303652336327
 30
0.0
 40
5.903049564835877
210
0.0
220
0.0
230
-1.0
100
AcDbArc
 50
319.1648271696688
 51
1.131254353206299
  0
LWPOLYLINE
  5
46
330
A
100
AcDbEntity
  8
ADP1DETAIL
  6
CONTINUOUS
 62
     7
100
AcDbPolyline
 90
        2
 70
   128
 43
0.0
 10
16.26552170468196
 20
-0.8939270711662093
 10
15.01552170468196
 20
-0.8939270711662093
  0
LWPOLYLINE
  5
4A
330
A
100
AcDbEntity
  8
ADP1DETAIL
  6
CONTINUOUS
 62
     7
100
AcDbPolyline
 90
        2
 70
   128
 43
0.0
 10
16.39052170468196
 20
-1.018927071166209
 10
14.89052170468196
 20
-1.018927071166209
  0
LWPOLYLINE
  5
4E
330
A
100
AcDbEntity
  8
ADP1DETAIL
  6
CONTINUOUS
 62
     7
100
AcDbPolyline
 90
        2
 70
   128
 43
0.0
 10
14.89052170468196
 20
-1.018927071166209
 10
14.89052170468196
 20
-0.5189270711662094
  0
LWPOLYLINE
  5
52
330
A
100
AcDbEntity
  8
ADP1DETAIL
  6
CONTINUOUS
 62
     7
100
AcDbPolyline
 90
        2
 70
   128
 43
0.0
 10
15.01552170468196
 20
-0.8939270711662093
 10
15.01552170468196
 20
-0.5189270711662094
  0
LWPOLYLINE
  5
56
330
A
100
AcDbEntity
  8
ADP1DETAIL
  6
CONTINUOUS
 62
     7
100
AcDbPolyline
 90
        2
 70
   128
 43
0.0
 10
14.89052170468196
 20
-0.5189270711662094
 10
15.01552170468196
 20
-0.5189270711662094
  0
LWPOLYLINE
  5
5A
330
A
100
AcDbEntity
  8
ADP1DETAIL
  6
CONTINUOUS
 62
     7
100
AcDbPolyline
 90
        2
 70
   128
 43
0.0
 10
16.39052170468196
 20
-0.5189270711662094
 10
16.39052170468196
 20
-1.018927071166209
  0
LWPOLYLINE
  5
5E
330
A
100
AcDbEntity
  8
ADP1DETAIL
  6
CONTINUOUS
 62
     7
100
AcDbPolyline
 90
        2
 70
   128
 43
0.0
 10
16.26552170468196
 20
-0.5189270711662094
 10
16.26552170468196
 20
-0.8939270711662093
  0
LWPOLYLINE
  5
62
330
A
100
AcDbEntity
  8
ADP1DETAIL
  6
CONTINUOUS
 62
     7
100
AcDbPolyline
 90
        2
 70
   128
 43
0.0
 10
16.26552170468196
 20
-0.5189270711662094
 10
16.39052170468196
 20
-0.5189270711662094
  0
LWPOLYLINE
  5
66
330
A
100
AcDbEntity
  8
ADP1DETAIL
  6
CONTINUOUS
 62
     7
100
AcDbPolyline
 90
        2
 70
   128
 43
0.0
 10
14.89881243503102
 20
-2.024473860642277
 10
16.39881243503102
 20
-2.024473860642276
  0
LWPOLYLINE
  5
6A
330
A
100
AcDbEntity
  8
ADP1DETAIL
  6
CONTINUOUS
 62
     7
100
AcDbPolyline
 90
        2
 70
   128
 43
0.0
 10
16.39881243503102
 20
-2.024473860642276
 10
16.39881243503102
 20
-4.315062978278078
  0
LWPOLYLINE
  5
6E
330
A
100
AcDbEntity
  8
ADP1DETAIL
  6
CONTINUOUS
 62
     7
100
AcDbPolyline
 90
        2
 70
   128
 43
0.0
 10
16.27381243503102
 20
-2.024473860642276
 10
16.27381243503102
 20
-4.31382232747915
  0
ARC
  5
72
330
A
100
AcDbEntity
  8
ADP1DETAIL
  6
CONTINUOUS
 62
     7
100
AcDbCircle
 10
-21.83704077874089
 20
-6.054056062006521
 30
0.0
 40
3.78720733337776
210
0.0
220
0.0
230
-1.0
100
AcDbArc
 50
158.1035059679436
 51
222.6609141262068
  0
ARC
  5
73
330
A
100
AcDbEntity
  8
ADP1DETAIL
  6
CONTINUOUS
 62
     7
100
AcDbCircle
 10
-21.83704077874089
 20
-6.054056062006521
 30
0.0
 40
3.912207333377761
210
0.0
220
0.0
230
-1.0
100
AcDbArc
 50
157.9933531588126
 51
222.7159597778614
  0
ARC
  5
74
330
A
100
AcDbEntity
  8
ADP1DETAIL
  6
CONTINUOUS
 62
     7
100
AcDbCircle
 10
-22.43709479393751
 20
-6.243064145206602
 30
0.0
 40
3.324974072953232
210
0.0
220
0.0
230
-1.0
100
AcDbArc
 50
100.2211329595673
 51
151.2087177664956
  0
ARC
  5
75
330
A
100
AcDbEntity
  8
ADP1DETAIL
  6
CONTINUOUS
 62
     7
100
AcDbCircle
 10
-22.43709479393752
 20
-6.243064145206602
 30
0.0
 40
3.44997407295323
210
0.0
220
0.0
230
-1.0
100
AcDbArc
 50
100.1099939891884
 51
151.3339061470804
  0
ARC
  5
76
330
A
100
AcDbEntity
  8
ADP1DETAIL
  6
CONTINUOUS
 62
     7
100
AcDbCircle
 10
-21.71769981886445
 20
-5.957975696358889
 30
0.0
 40
1.46531060367229
210
0.0
220
0.0
230
-1.0
100
AcDbArc
 50
36.01607754188661
 51
273.1015896069375
  0
ARC
  5
77
330
A
100
AcDbEntity
  8
ADP1DETAIL
  6
CONTINUOUS
 62
     7
100
AcDbCircle
 10
-22.87018005651668
 20
-5.179465481537976
 30
0.0
 40
2.339176600253982
210
0.0
220
0.0
230
-1.0
100
AcDbArc
 50
2.036133311694856
 51
94.22949106991344
  0
ARC
  5
78
330
A
100
AcDbEntity
  8
ADP1DETAIL
  6
CONTINUOUS
 62
     7
100
AcDbCircle
 10
-22.87018005651668
 20
-5.179465481537976
 30
0.0
 40
2.214176600253982
210
0.0
220
0.0
230
-1.0
100
AcDbArc
 50
11.57854145241568
 51
94.06409283705327
  0
ARC
  5
79
330
A
100
AcDbEntity
  8
ADP1DETAIL
  6
CONTINUOUS
 62
     7
100
AcDbCircle
 10
-21.71769981886445
 20
-5.957975696358889
 30
0.0
 40
1.590310603672289
210
0.0
220
0.0
230
-1.0
100
AcDbArc
 50
50.26254208300436
 51
273.1015896069375
  0
LWPOLYLINE
  5
7A
330
A
100
AcDbEntity
  8
ADPDIM
  6
CONTINUOUS
 62
     3
 48
0.125
100
AcDbPolyline
 90
        2
 70
   128
 43
0.0
 10
14.89052170468196
 20
-1.081427071166209
 10
14.89052170468196
 20
-1.486558438550841
  0
LWPOLYLINE
  5
7E
330
A
100
AcDbEntity
  8
ADPDIM
  6
CONTINUOUS
 62
     3
 48
0.125
100
AcDbPolyline
 90
        2
 70
   128
 43
0.0
 10
16.39052170468196
 20
-1.081427071166209
 10
16.39052170468196
 20
-1.486558438550841
  0
LWPOLYLINE
  5
82
330
A
100
AcDbEntity
  8
ADPDIM
  6
CONTINUOUS
 62
     3
 48
0.125
100
AcDbPolyline
 90
        2
 70
   128
 43
0.0
 10
14.89052170468196
 20
-1.306558438550841
 10
15.26552170468196
 20
-1.306558438550841
  0
LWPOLYLINE
  5
86
330
A
100
AcDbEntity
  8
ADPDIM
  6
CONTINUOUS
 62
     3
 48
0.125
100
AcDbPolyline
 90
        2
 70
   128
 43
0.0
 10
16.39052170468196
 20
-1.306558438550841
 10
16.01552170468196
 20
-1.306558438550841
  0
LWPOLYLINE
  5
8A
330
A
100
AcDbEntity
  8
ADPDIM
  6
CONTINUOUS
 62
     3
 48
0.125
100
AcDbPolyline
 90
        2
 70
   128
 43
0.0
 10
14.76552170468196
 20
-1.431558438550841
 10
15.01552170468196
 20
-1.181558438550841
  0
LWPOLYLINE
  5
8E
330
A
100
AcDbEntity
  8
ADPDIM
  6
CONTINUOUS
 62
     3
 48
0.125
100
AcDbPolyline
 90
        2
 70
   128
 43
0.0
 10
16.26552170468196
 20
-1.431558438550841
 10
16.51552170468196
 20
-1.181558438550841
  0
TEXT
  5
92
330
A
100
AcDbEntity
  8
ADPDIM
 62
     3
 48
0.0
100
AcDbText
 10
15.39052170468196
 20
-1.369058438550841
 30
0.0
 40
0.125
  1
1 1/2
 72
     5
 11
15.89052170468196
 21
-1.369058438550841
 31
0.0
100
AcDbText
  0
LWPOLYLINE
  5
93
330
A
100
AcDbEntity
  8
ADPDIM
  6
CONTINUOUS
 62
     3
 48
0.125
100
AcDbPolyline
 90
        2
 70
   128
 43
0.0
 10
14.82802170468196
 20
-0.5189270711662094
 10
14.37061021726612
 20
-0.5189270711662094
  0
LWPOLYLINE
  5
97
330
A
100
AcDbEntity
  8
ADPDIM
  6
CONTINUOUS
 62
     3
 48
0.125
100
AcDbPolyline
 90
        2
 70
   128
 43
0.0
 10
14.82802170468196
 20
-1.018927071166209
 10
14.37061021726612
 20
-1.018927071166209
  0
LWPOLYLINE
  5
9B
330
A
100
AcDbEntity
  8
ADPDIM
  6
CONTINUOUS
 62
     3
 48
0.125
100
AcDbPolyline
 90
        2
 70
   128
 43
0.0
 10
14.55061021726612
 20
-0.5189270711662094
 10
14.55061021726612
 20
-0.2689270711662093
  0
LWPOLYLINE
  5
9F
330
A
100
AcDbEntity
  8
ADPDIM
  6
CONTINUOUS
 62
     3
 48
0.125
100
AcDbPolyline
 90
        2
 70
   128
 43
0.0
 10
14.55061021726612
 20
-1.018927071166209
 10
14.55061021726612
 20
-1.268927071166209
  0
LWPOLYLINE
  5
A3
330
A
100
AcDbEntity
  8
ADPDIM
  6
CONTINUOUS
 62
     3
 48
0.125
100
AcDbPolyline
 90
        2
 70
   128
 43
0.0
 10
14.67561021726612
 20
-0.6439270711662094
 10
14.42561021726612
 20
-0.3939270711662093
  0
LWPOLYLINE
  5
A7
330
A
100
AcDbEntity
  8
ADPDIM
  6
CONTINUOUS
 62
     3
 48
0.125
100
AcDbPolyline
 90
        2
 70
   128
 43
0.0
 10
14.67561021726612
 20
-1.143927071166209
 10
14.42561021726612
 20
-0.8939270711662093
  0
TEXT
  5
AB
330
A
100
AcDbEntity
  8
ADPDIM
 62
     3
 48
0.0
100
AcDbText
 10
14.61311021726612
 20
-1.685593737832875
 30
0.0
 40
0.125
  1
1/2
 50
90.0
 72
     5
 11
14.61311021726612
 21
-1.393927071166209
 31
0.0
100
AcDbText
  0
LWPOLYLINE
  5
AC
330
A
100
AcDbEntity
  8
DEFPOINTS
  6
CONTINUOUS
 62
     3
 48
0.125
100
AcDbPolyline
 90
        2
 70
   128
 43
0.0
 10
14.89052170468196
 20
-1.01892707116621
 10
14.89052170468196
 20
-1.01892707116621
  0
LWPOLYLINE
  5
B0
330
A
100
AcDbEntity
  8
DEFPOINTS
  6
CONTINUOUS
 62
     3
 48
0.125
100
AcDbPolyline
 90
        2
 70
   128
 43
0.0
 10
14.89052170468196
 20
-1.01892707116621
 10
14.89052170468196
 20
-1.01892707116621
  0
LWPOLYLINE
  5
B4
330
A
100
AcDbEntity
  8
DEFPOINTS
  6
CONTINUOUS
 62
     3
 48
0.125
100
AcDbPolyline
 90
        2
 70
   128
 43
0.0
 10
16.39052170468196
 20
-1.01892707116621
 10
16.39052170468196
 20
-1.01892707116621
  0
LWPOLYLINE
  5
B8
330
A
100
AcDbEntity
  8
DEFPOINTS
  6
CONTINUOUS
 62
     3
 48
0.125
100
AcDbPolyline
 90
        2
 70
   128
 43
0.0
 10
16.39052170468196
 20
-1.01892707116621
 10
16.39052170468196
 20
-1.01892707116621
  0
LWPOLYLINE
  5
BC
330
A
100
AcDbEntity
  8
DEFPOINTS
  6
CONTINUOUS
 62
     3
 48
0.125
100
AcDbPolyline
 90
        2
 70
   128
 43
0.0
 10
16.39052170468196
 20
-1.30655843855084
 10
16.39052170468196
 20
-1.30655843855084
  0
LWPOLYLINE
  5
C0
330
A
100
AcDbEntity
  8
DEFPOINTS
  6
CONTINUOUS
 62
     3
 48
0.125
100
AcDbPolyline
 90
        2
 70
   128
 43
0.0
 10
16.39052170468196
 20
-1.30655843855084
 10
16.39052170468196
 20
-1.30655843855084
  0
LWPOLYLINE
  5
C4
330
A
100
AcDbEntity
  8
DEFPOINTS
  6
CONTINUOUS
 62
     3
 48
0.125
100
AcDbPolyline
 90
        2
 70
   128
 43
0.0
 10
14.89052170468196
 20
-0.5189270711662095
 10
14.89052170468196
 20
-0.5189270711662095
  0
LWPOLYLINE
  5
C8
330
A
100
AcDbEntity
  8
DEFPOINTS
  6
CONTINUOUS
 62
     3
 48
0.125
100
AcDbPolyline
 90
        2
 70
   128
 43
0.0
 10
14.89052170468196
 20
-0.5189270711662095
 10
14.89052170468196
 20
-0.5189270711662095
  0
LWPOLYLINE
  5
CC
330
A
100
AcDbEntity
  8
DEFPOINTS
  6
CONTINUOUS
 62
     3
 48
0.125
100
AcDbPolyline
 90
        2
 70
   128
 43
0.0
 10
14.89052170468196
 20
-1.01892707116621
 10
14.89052170468196
 20
-1.01892707116621
  0
LWPOLYLINE
  5
D0
330
A
100
AcDbEntity
  8
DEFPOINTS
  6
CONTINUOUS
 62
     3
 48
0.125
100
AcDbPolyline
 90
        2
 70
   128
 43
0.0
 10
14.89052170468196
 20
-1.01892707116621
 10
14.89052170468196
 20
-1.01892707116621
  0
LWPOLYLINE
  5
D4
330
A
100
AcDbEntity
  8
DEFPOINTS
  6
CONTINUOUS
 62
     3
 48
0.125
100
AcDbPolyline
 90
        2
 70
   128
 43
0.0
 10
14.55061021726612
 20
-1.01892707116621
 10
14.55061021726612
 20
-1.01892707116621
  0
LWPOLYLINE
  5
D8
330
A
100
AcDbEntity
  8
DEFPOINTS
  6
CONTINUOUS
 62
     3
 48
0.125
100
AcDbPolyline
 90
        2
 70
   128
 43
0.0
 10
14.55061021726612
 20
-1.01892707116621
 10
14.55061021726612
 20
-1.01892707116621
  0
TEXT
  5
E9
330
A
100
AcDbEntity
  8
ADPDIM
100
AcDbText
 10
11.11524431548419
 20
-12.11750131233388
 30
0.0
 40
0.1875
  1
J U L I U S  B L U M  &  C O . ,  I N C .      ( 8 0 0 )  5 2 6 - 6 2 9 3        W W W . J U L I U S B L U M . C O M        P A R T  N o .  6 5 0 - C R
 41
1.25
  7
ARIAL_WIDE
 72
     1
 11
21.19472824283754
 21
-11.93000131233388
 31
0.0
100
AcDbText
 73
     3
  0
ENDSEC
  0
SECTION
  2
OBJECTS
  0
DICTIONARY
  5
19
330
0
100
AcDbDictionary
  3
ACAD_GROUP
350
1A
  3
ACAD_LAYOUT
350
E1
  3
ACAD_MLINESTYLE
350
1B
  3
ACAD_PLOTSETTINGS
350
E2
  3
ACAD_PLOTSTYLENAME
350
DF
  3
ACDBHEADERROUNDTRIPXREC
350
249
  3
ACDBVARIABLEDICTIONARY
350
14B
  0
DICTIONARY
  5
13F
330
A
100
AcDbDictionary
280
     1
  3
ACAD_LAYOUTSELFREF
360
269
  0
DICTIONARY
  5
141
330
B
100
AcDbDictionary
280
     1
  3
ACAD_LAYOUTSELFREF
360
26A
  0
DICTIONARY
  5
1A
102
{ACAD_REACTORS
330
19
102
}
330
19
100
AcDbDictionary
  0
DICTIONARY
  5
E1
102
{ACAD_REACTORS
330
19
102
}
330
19
100
AcDbDictionary
  0
DICTIONARY
  5
1B
102
{ACAD_REACTORS
330
19
102
}
330
19
100
AcDbDictionary
  3
STANDARD
350
1C
  0
DICTIONARY
  5
E2
102
{ACAD_REACTORS
330
19
102
}
330
19
100
AcDbDictionary
  0
ACDBDICTIONARYWDFLT
  5
DF
102
{ACAD_REACTORS
330
19
102
}
330
19
100
AcDbDictionary
281
     1
  3
Normal
350
E0
100
AcDbDictionaryWithDefault
340
E0
  0
DICTIONARY
  5
249
102
{ACAD_REACTORS
330
19
102
}
330
19
100
AcDbDictionary
  3
CEPSNTYPE
350
253
  3
FINGERPRINTGUID
350
254
  3
HYPERLINKBASE
350
24C
  3
INSUNITS
350
252
  3
LAYOUTDICT
350
24E
  3
LWETCUNION
350
251
  3
PLOTSETDICT
350
24F
  3
PLOTSTYLNAMDICT
350
250
  3
PSVPSCALE
350
256
  3
PUCSBASE
350
259
  3
PUCSORGBACK
350
25F
  3
PUCSORGBOTTOM
350
25B
  3
PUCSORGFRONT
350
25E
  3
PUCSORGLEFT
350
25C
  3
PUCSORGRIGHT
350
25D
  3
PUCSORGTOP
350
25A
  3
PUCSORTHOREF
350
257
  3
PUCSORTHOVIEW
350
258
  3
STYLESHEET
350
24D
  3
TSTACKALIGN
350
24A
  3
TSTACKSIZE
350
24B
  3
UCSBASE
350
262
  3
UCSORGBACK
350
268
  3
UCSORGBOTTOM
350
264
  3
UCSORGFRONT
350
267
  3
UCSORGLEFT
350
265
  3
UCSORGRIGHT
350
266
  3
UCSORGTOP
350
263
  3
UCSORTHOREF
350
260
  3
UCSORTHOVIEW
350
261
  3
VERSIONGUID
350
255
  0
DICTIONARY
  5
14B
102
{ACAD_REACTORS
330
19
102
}
330
19
100
AcDbDictionary
  3
DIMASSOC
350
14C
  0
XRECORD
  5
269
102
{ACAD_REACTORS
330
13F
102
}
330
13F
100
AcDbXrecord
340
A
  0
XRECORD
  5
26A
102
{ACAD_REACTORS
330
141
102
}
330
141
100
AcDbXrecord
340
B
  0
MLINESTYLE
  5
1C
102
{ACAD_REACTORS
330
1B
102
}
330
1B
100
AcDbMlineStyle
  2
STANDARD
 70
     0
  3

 62
     0
 51
90.00000000000019
 52
90.00000000000019
 71
     2
 49
0.5
 62
   256
  6
BYLAYER
 49
-0.5
 62
   256
  6
BYLAYER
  0
ACDBPLACEHOLDER
  5
E0
102
{ACAD_REACTORS
330
DF
102
}
330
DF
100
AcDbPlaceHolder
280
     0
  0
XRECORD
  5
253
102
{ACAD_REACTORS
330
249
102
}
330
249
100
AcDbXrecord
 90
        0
  0
XRECORD
  5
254
102
{ACAD_REACTORS
330
249
102
}
330
249
100
AcDbXrecord
  1
{1FAEB5EB-2BE4-4778-8AD7-5A387F313190}
  0
XRECORD
  5
24C
102
{ACAD_REACTORS
330
249
102
}
330
249
100
AcDbXrecord
  1

  0
XRECORD
  5
252
102
{ACAD_REACTORS
330
249
102
}
330
249
100
AcDbXrecord
 90
        0
  0
XRECORD
  5
24E
102
{ACAD_REACTORS
330
249
102
}
330
249
100
AcDbXrecord
340
E1
  0
XRECORD
  5
251
102
{ACAD_REACTORS
330
249
102
}
330
249
100
AcDbXrecord
 90
    14877
  0
XRECORD
  5
24F
102
{ACAD_REACTORS
330
249
102
}
330
249
100
AcDbXrecord
340
E2
  0
XRECORD
  5
250
102
{ACAD_REACTORS
330
249
102
}
330
249
100
AcDbXrecord
340
DF
  0
XRECORD
  5
256
102
{ACAD_REACTORS
330
249
102
}
330
249
100
AcDbXrecord
 40
0.0
  0
XRECORD
  5
259
102
{ACAD_REACTORS
330
249
102
}
330
249
100
AcDbXrecord
340
0
  0
XRECORD
  5
25F
102
{ACAD_REACTORS
330
249
102
}
330
249
100
AcDbXrecord
 10
0.0
 20
0.0
 30
0.0
  0
XRECORD
  5
25B
102
{ACAD_REACTORS
330
249
102
}
330
249
100
AcDbXrecord
 10
0.0
 20
0.0
 30
0.0
  0
XRECORD
  5
25E
102
{ACAD_REACTORS
330
249
102
}
330
249
100
AcDbXrecord
 10
0.0
 20
0.0
 30
0.0
  0
XRECORD
  5
25C
102
{ACAD_REACTORS
330
249
102
}
330
249
100
AcDbXrecord
 10
0.0
 20
0.0
 30
0.0
  0
XRECORD
  5
25D
102
{ACAD_REACTORS
330
249
102
}
330
249
100
AcDbXrecord
 10
0.0
 20
0.0
 30
0.0
  0
XRECORD
  5
25A
102
{ACAD_REACTORS
330
249
102
}
330
249
100
AcDbXrecord
 10
0.0
 20
0.0
 30
0.0
  0
XRECORD
  5
257
102
{ACAD_REACTORS
330
249
102
}
330
249
100
AcDbXrecord
340
0
  0
XRECORD
  5
258
102
{ACAD_REACTORS
330
249
102
}
330
249
100
AcDbXrecord
 70
     0
  0
XRECORD
  5
24D
102
{ACAD_REACTORS
330
249
102
}
330
249
100
AcDbXrecord
  1

  0
XRECORD
  5
24A
102
{ACAD_REACTORS
330
249
102
}
330
249
100
AcDbXrecord
 90
        1
  0
XRECORD
  5
24B
102
{ACAD_REACTORS
330
249
102
}
330
249
100
AcDbXrecord
 90
       70
  0
XRECORD
  5
262
102
{ACAD_REACTORS
330
249
102
}
330
249
100
AcDbXrecord
340
0
  0
XRECORD
  5
268
102
{ACAD_REACTORS
330
249
102
}
330
249
100
AcDbXrecord
 10
0.0
 20
0.0
 30
0.0
  0
XRECORD
  5
264
102
{ACAD_REACTORS
330
249
102
}
330
249
100
AcDbXrecord
 10
0.0
 20
0.0
 30
0.0
  0
XRECORD
  5
267
102
{ACAD_REACTORS
330
249
102
}
330
249
100
AcDbXrecord
 10
0.0
 20
0.0
 30
0.0
  0
XRECORD
  5
265
102
{ACAD_REACTORS
330
249
102
}
330
249
100
AcDbXrecord
 10
0.0
 20
0.0
 30
0.0
  0
XRECORD
  5
266
102
{ACAD_REACTORS
330
249
102
}
330
249
100
AcDbXrecord
 10
0.0
 20
0.0
 30
0.0
  0
XRECORD
  5
263
102
{ACAD_REACTORS
330
249
102
}
330
249
100
AcDbXrecord
 10
0.0
 20
0.0
 30
0.0
  0
XRECORD
  5
260
102
{ACAD_REACTORS
330
249
102
}
330
249
100
AcDbXrecord
340
0
  0
XRECORD
  5
261
102
{ACAD_REACTORS
330
249
102
}
330
249
100
AcDbXrecord
 70
     0
  0
XRECORD
  5
255
102
{ACAD_REACTORS
330
249
102
}
330
249
100
AcDbXrecord
  1
{8452AEEA-3F3C-46F8-94EF-9354949A19B6}
  0
DICTIONARYVAR
  5
14C
102
{ACAD_REACTORS
330
14B
102
}
330
14B
100
DictionaryVariables
280
     0
  1
1
  0
ENDSEC
  0
EOF
