  0
SECTION
  2
HEADER
  9
$ACADVER
  1
AC1014
  9
$ACADMAINTVER
 70
     9
  9
$DWGCODEPAGE
  3
ANSI_1252
  9
$INSBASE
 10
0.0
 20
0.0
 30
0.0
  9
$EXTMIN
 10
-26.32713855765175
 20
-0.0029826027990745
 30
0.0
  9
$EXTMAX
 10
-12.88782665451396
 20
7.795607579937531
 30
0.0
  9
$LIMMIN
 10
0.0
 20
0.0
  9
$LIMMAX
 10
0.0
 20
0.0
  9
$ORTHOMODE
 70
     1
  9
$REGENMODE
 70
     1
  9
$FILLMODE
 70
     1
  9
$QTEXTMODE
 70
     0
  9
$MIRRTEXT
 70
     1
  9
$DRAGMODE
 70
     0
  9
$LTSCALE
 40
1.0
  9
$OSMODE
 70
    37
  9
$ATTMODE
 70
     1
  9
$TEXTSIZE
 40
0.0
  9
$TRACEWID
 40
0.05
  9
$TEXTSTYLE
  7
STANDARD
  9
$CLAYER
  8
0
  9
$CELTYPE
  6
CONTINUOUS
  9
$CECOLOR
 62
   256
  9
$CELTSCALE
 40
1.0
  9
$DELOBJ
 70
     1
  9
$DISPSILH
 70
     0
  9
$DIMSCALE
 40
1.0
  9
$DIMASZ
 40
0.18
  9
$DIMEXO
 40
0.0625
  9
$DIMDLI
 40
0.38
  9
$DIMRND
 40
0.0
  9
$DIMDLE
 40
0.0
  9
$DIMEXE
 40
0.18
  9
$DIMTP
 40
0.0
  9
$DIMTM
 40
0.0
  9
$DIMTXT
 40
0.18
  9
$DIMCEN
 40
0.09
  9
$DIMTSZ
 40
0.0
  9
$DIMTOL
 70
     0
  9
$DIMLIM
 70
     0
  9
$DIMTIH
 70
     1
  9
$DIMTOH
 70
     1
  9
$DIMSE1
 70
     0
  9
$DIMSE2
 70
     0
  9
$DIMTAD
 70
     0
  9
$DIMZIN
 70
     0
  9
$DIMBLK
  1

  9
$DIMASO
 70
     1
  9
$DIMSHO
 70
     1
  9
$DIMPOST
  1

  9
$DIMAPOST
  1

  9
$DIMALT
 70
     0
  9
$DIMALTD
 70
     2
  9
$DIMALTF
 40
25.4
  9
$DIMLFAC
 40
1.0
  9
$DIMTOFL
 70
     0
  9
$DIMTVP
 40
0.0
  9
$DIMTIX
 70
     0
  9
$DIMSOXD
 70
     0
  9
$DIMSAH
 70
     0
  9
$DIMBLK1
  1

  9
$DIMBLK2
  1

  9
$DIMSTYLE
  2
STANDARD
  9
$DIMCLRD
 70
     0
  9
$DIMCLRE
 70
     0
  9
$DIMCLRT
 70
     0
  9
$DIMTFAC
 40
1.0
  9
$DIMGAP
 40
0.09
  9
$DIMJUST
 70
     0
  9
$DIMSD1
 70
     0
  9
$DIMSD2
 70
     0
  9
$DIMTOLJ
 70
     1
  9
$DIMTZIN
 70
     0
  9
$DIMALTZ
 70
     0
  9
$DIMALTTZ
 70
     0
  9
$DIMFIT
 70
     3
  9
$DIMUPT
 70
     0
  9
$DIMUNIT
 70
     2
  9
$DIMDEC
 70
     4
  9
$DIMTDEC
 70
     4
  9
$DIMALTU
 70
     2
  9
$DIMALTTD
 70
     2
  9
$DIMTXSTY
  7
STANDARD
  9
$DIMAUNIT
 70
     0
  9
$LUNITS
 70
     2
  9
$LUPREC
 70
     4
  9
$SKETCHINC
 40
0.1
  9
$FILLETRAD
 40
0.0
  9
$AUNITS
 70
     0
  9
$AUPREC
 70
     0
  9
$MENU
  1
acad
  9
$ELEVATION
 40
0.0
  9
$PELEVATION
 40
0.0
  9
$THICKNESS
 40
0.0
  9
$LIMCHECK
 70
     0
  9
$BLIPMODE
 70
     0
  9
$CHAMFERA
 40
0.0
  9
$CHAMFERB
 40
0.0
  9
$CHAMFERC
 40
0.0
  9
$CHAMFERD
 40
0.0
  9
$SKPOLY
 70
     0
  9
$TDCREATE
 40
2444971.791666666
  9
$TDUPDATE
 40
2452297.074717882
  9
$TDINDWG
 40
0.0178989468
  9
$TDUSRTIMER
 40
0.0178989468
  9
$USRTIMER
 70
     1
  9
$ANGBASE
 50
0.0
  9
$ANGDIR
 70
     0
  9
$PDMODE
 70
     0
  9
$PDSIZE
 40
0.0
  9
$PLINEWID
 40
0.0
  9
$COORDS
 70
     2
  9
$SPLFRAME
 70
     0
  9
$SPLINETYPE
 70
     6
  9
$SPLINESEGS
 70
     8
  9
$ATTDIA
 70
     0
  9
$ATTREQ
 70
     1
  9
$HANDLING
 70
 22529
  9
$HANDSEED
  5
2FE
  9
$SURFTAB1
 70
     6
  9
$SURFTAB2
 70
     6
  9
$SURFTYPE
 70
     6
  9
$SURFU
 70
     6
  9
$SURFV
 70
     6
  9
$UCSNAME
  2

  9
$UCSORG
 10
0.0
 20
0.0
 30
0.0
  9
$UCSXDIR
 10
1.0
 20
0.0
 30
0.0
  9
$UCSYDIR
 10
0.0
 20
1.0
 30
0.0
  9
$PUCSNAME
  2

  9
$PUCSORG
 10
0.0
 20
0.0
 30
0.0
  9
$PUCSXDIR
 10
1.0
 20
0.0
 30
0.0
  9
$PUCSYDIR
 10
0.0
 20
1.0
 30
0.0
  9
$USERI1
 70
     0
  9
$USERI2
 70
     0
  9
$USERI3
 70
     0
  9
$USERI4
 70
     0
  9
$USERI5
 70
     0
  9
$USERR1
 40
0.0
  9
$USERR2
 40
0.0
  9
$USERR3
 40
0.0
  9
$USERR4
 40
0.0
  9
$USERR5
 40
0.0
  9
$WORLDVIEW
 70
     1
  9
$SHADEDGE
 70
     3
  9
$SHADEDIF
 70
    70
  9
$TILEMODE
 70
     1
  9
$MAXACTVP
 70
    16
  9
$PINSBASE
 10
0.0
 20
0.0
 30
0.0
  9
$PLIMCHECK
 70
     0
  9
$PEXTMIN
 10
1.000000000000000E+20
 20
1.000000000000000E+20
 30
1.000000000000000E+20
  9
$PEXTMAX
 10
-1.000000000000000E+20
 20
-1.000000000000000E+20
 30
-1.000000000000000E+20
  9
$PLIMMIN
 10
0.0
 20
0.0
  9
$PLIMMAX
 10
12.0
 20
9.0
  9
$UNITMODE
 70
     0
  9
$VISRETAIN
 70
     0
  9
$PLINEGEN
 70
     0
  9
$PSLTSCALE
 70
     0
  9
$TREEDEPTH
 70
  3020
  9
$PICKSTYLE
 70
     1
  9
$CMLSTYLE
  2
STANDARD
  9
$CMLJUST
 70
     0
  9
$CMLSCALE
 40
1.0
  9
$PROXYGRAPHICS
 70
     1
  9
$MEASUREMENT
 70
     0
  0
ENDSEC
  0
SECTION
  2
CLASSES
  0
CLASS
  1
LWPOLYLINE
  2
AcDbPolyline
  3
AutoCAD 2000
 90
        0
280
     0
281
     1
  0
CLASS
  1
IMAGE
  2
AcDbRasterImage
  3
ISM
 90
      127
280
     0
281
     1
  0
CLASS
  1
OLE2FRAME
  2
AcDbOle2Frame
  3
AutoCAD 2000
 90
        0
280
     0
281
     1
  0
CLASS
  1
HATCH
  2
AcDbHatch
  3
AutoCAD 2000
 90
        0
280
     0
281
     1
  0
CLASS
  1
DICTIONARYVAR
  2
AcDbDictionaryVar
  3
AutoCAD 2000
 90
        0
280
     0
281
     0
  0
CLASS
  1
RASTERVARIABLES
  2
AcDbRasterVariables
  3
ISM
 90
        0
280
     0
281
     0
  0
CLASS
  1
IMAGEDEF
  2
AcDbRasterImageDef
  3
ISM
 90
        0
280
     0
281
     0
  0
CLASS
  1
IMAGEDEF_REACTOR
  2
AcDbRasterImageDefReactor
  3
ISM
 90
        1
280
     0
281
     0
  0
CLASS
  1
IDBUFFER
  2
AcDbIdBuffer
  3
AutoCAD 2000
 90
        0
280
     0
281
     0
  0
CLASS
  1
SPATIAL_FILTER
  2
AcDbSpatialFilter
  3
AutoCAD 2000
 90
        0
280
     0
281
     0
  0
CLASS
  1
XRECORD
  2
AcDbXrecord
  3
AutoCAD 2000
 90
        0
280
     0
281
     0
  0
CLASS
  1
SORTENTSTABLE
  2
AcDbSortentsTable
  3
AutoCAD 2000
 90
        0
280
     0
281
     0
  0
CLASS
  1
LAYER_INDEX
  2
AcDbLayerIndex
  3
AutoCAD 2000
 90
        0
280
     0
281
     0
  0
CLASS
  1
SPATIAL_INDEX
  2
AcDbSpatialIndex
  3
AutoCAD 2000
 90
        0
280
     0
281
     0
  0
CLASS
  1
OBJECT_PTR
  2
CAseDLPNTableRecord
  3
ASE-LPNTableRecord
 90
        1
280
     0
281
     0
  0
CLASS
  1
ACDBDICTIONARYWDFLT
  2
AcDbDictionaryWithDefault
  3
AutoCAD 2000
 90
        0
280
     0
281
     0
  0
CLASS
  1
ACDBPLACEHOLDER
  2
AcDbPlaceHolder
  3
AutoCAD 2000
 90
        0
280
     0
281
     0
  0
CLASS
  1
LAYOUT
  2
AcDbLayout
  3
AutoCAD 2000
 90
        0
280
     0
281
     0
  0
CLASS
  1
LONG_TRANSACTION
  2
AcDbLongTransaction
  3
AutoCAD 2000
 90
        0
280
     0
281
     0
  0
CLASS
  1
LWPOLYLINE
  2
AcDbPolyline
  3
AutoCAD 2000
 90
        0
280
     0
281
     1
  0
CLASS
  1
HATCH
  2
AcDbHatch
  3
AutoCAD 2000
 90
        0
280
     0
281
     1
  0
CLASS
  1
XRECORD
  2
AcDbXrecord
  3
AutoCAD 2000
 90
        0
280
     0
281
     0
  0
CLASS
  1
LONG_TRANSACTION
  2
AcDbLongTransaction
  3
AutoCAD 2000
 90
        0
280
     0
281
     0
  0
CLASS
  1
LWPOLYLINE
  2
AcDbPolyline
  3
AutoCAD 2000
 90
        0
280
     0
281
     1
  0
CLASS
  1
HATCH
  2
AcDbHatch
  3
AutoCAD 2000
 90
        0
280
     0
281
     1
  0
CLASS
  1
XRECORD
  2
AcDbXrecord
  3
AutoCAD 2000
 90
        0
280
     0
281
     0
  0
CLASS
  1
LONG_TRANSACTION
  2
AcDbLongTransaction
  3
AutoCAD 2000
 90
        0
280
     0
281
     0
  0
CLASS
  1
LWPOLYLINE
  2
AcDbPolyline
  3
AutoCAD 2000
 90
        0
280
     0
281
     1
  0
CLASS
  1
HATCH
  2
AcDbHatch
  3
AutoCAD 2000
 90
        0
280
     0
281
     1
  0
CLASS
  1
XRECORD
  2
AcDbXrecord
  3
AutoCAD 2000
 90
        0
280
     0
281
     0
  0
CLASS
  1
LONG_TRANSACTION
  2
AcDbLongTransaction
  3
AutoCAD 2000
 90
        0
280
     0
281
     0
  0
CLASS
  1
LWPOLYLINE
  2
AcDbPolyline
  3
AutoCAD 2000
 90
        0
280
     0
281
     1
  0
CLASS
  1
HATCH
  2
AcDbHatch
  3
AutoCAD 2000
 90
        0
280
     0
281
     1
  0
CLASS
  1
XRECORD
  2
AcDbXrecord
  3
AutoCAD 2000
 90
        0
280
     0
281
     0
  0
CLASS
  1
LONG_TRANSACTION
  2
AcDbLongTransaction
  3
AutoCAD 2000
 90
        0
280
     0
281
     0
  0
CLASS
  1
LWPOLYLINE
  2
AcDbPolyline
  3
AutoCAD 2000
 90
        0
280
     0
281
     1
  0
CLASS
  1
HATCH
  2
AcDbHatch
  3
AutoCAD 2000
 90
        0
280
     0
281
     1
  0
CLASS
  1
XRECORD
  2
AcDbXrecord
  3
AutoCAD 2000
 90
        0
280
     0
281
     0
  0
ENDSEC
  0
SECTION
  2
TABLES
  0
TABLE
  2
VPORT
  5
7
330
0
100
AcDbSymbolTable
 70
     3
  0
VPORT
  5
2E
330
7
100
AcDbSymbolTableRecord
100
AcDbViewportTableRecord
  2
DCADVPORT
 70
     0
 10
-21.64033951028531
 20
0.428233285232725
 11
-15.77947354632648
 21
7.12333436686957
 12
6.209999999999999
 22
9.019999999999999
 13
0.0
 23
0.0
 14
1.0
 24
1.0
 15
0.0
 25
0.0
 16
0.0
 26
0.0
 36
1.0
 17
0.0
 27
0.0
 37
0.0
 40
18.04
 41
0.688564
 42
50.0
 43
1.0
 44
1.0
 50
0.0
 51
0.0
 71
     0
 72
   100
 73
     1
 74
     1
 75
     0
 76
     0
 77
     0
 78
     0
  0
VPORT
  5
2DB
330
7
100
AcDbSymbolTableRecord
100
AcDbViewportTableRecord
  2
*ACTIVE
 70
     0
 10
0.0
 20
0.0
 11
1.0
 21
1.0
 12
-19.59630967249202
 22
3.896269458983717
 13
0.0
 23
0.0
 14
1.0
 24
1.0
 15
0.0
 25
0.0
 16
0.0
 26
0.0
 36
1.0
 17
0.0
 27
0.0
 37
0.0
 40
8.613324428643206
 41
1.570528967254408
 42
50.0
 43
0.0
 44
0.0
 50
0.0
 51
0.0
 71
     0
 72
   100
 73
     1
 74
     1
 75
     0
 76
     0
 77
     0
 78
     0
  0
ENDTAB
  0
TABLE
  2
LTYPE
  5
4
330
0
100
AcDbSymbolTable
 70
     3
  0
LTYPE
  5
11
330
4
100
AcDbSymbolTableRecord
100
AcDbLinetypeTableRecord
  2
BYBLOCK
 70
     0
  3

 72
    65
 73
     0
 40
0.0
  0
LTYPE
  5
12
330
4
100
AcDbSymbolTableRecord
100
AcDbLinetypeTableRecord
  2
BYLAYER
 70
     0
  3

 72
    65
 73
     0
 40
0.0
  0
LTYPE
  5
13
330
4
100
AcDbSymbolTableRecord
100
AcDbLinetypeTableRecord
  2
CONTINUOUS
 70
     0
  3
Solid line
 72
    65
 73
     0
 40
0.0
  0
LTYPE
  5
1E
330
4
100
AcDbSymbolTableRecord
100
AcDbLinetypeTableRecord
  2
CONTINUOUS
 70
     0
  3
Solid line
 72
    65
 73
     0
 40
0.0
  0
LTYPE
  5
22
330
4
100
AcDbSymbolTableRecord
100
AcDbLinetypeTableRecord
  2
DASHDOT
 70
     0
  3
__ . __ . __ . __ . __ . __ . __ . __ . __ . __
 72
    65
 73
     4
 40
1.0
 49
0.5
 74
     0
 49
-0.25
 74
     0
 49
0.0
 74
     0
 49
-0.25
 74
     0
  0
ENDTAB
  0
TABLE
  2
LAYER
  5
2
330
0
100
AcDbSymbolTable
 70
     5
  0
LAYER
  5
14
330
2
100
AcDbSymbolTableRecord
100
AcDbLayerTableRecord
  2
0
 70
     0
 62
     7
  6
CONTINUOUS
  0
LAYER
  5
2A
330
2
100
AcDbSymbolTableRecord
100
AcDbLayerTableRecord
  2
ADPDIM
 70
     0
 62
     3
  6
CONTINUOUS
  0
LAYER
  5
2B
330
2
100
AcDbSymbolTableRecord
100
AcDbLayerTableRecord
  2
ADP1DETAIL
 70
     0
 62
   250
  6
CONTINUOUS
  0
LAYER
  5
2C
330
2
100
AcDbSymbolTableRecord
100
AcDbLayerTableRecord
  2
ADP3DETAIL
 70
     0
 62
   250
  6
CONTINUOUS
  0
LAYER
  5
2D
330
2
100
AcDbSymbolTableRecord
100
AcDbLayerTableRecord
  2
DEFPOINTS
 70
     0
 62
   250
  6
CONTINUOUS
  0
ENDTAB
  0
TABLE
  2
STYLE
  5
3
330
0
100
AcDbSymbolTable
 70
     2
  0
STYLE
  5
17
330
3
100
AcDbSymbolTableRecord
100
AcDbTextStyleTableRecord
  2
STANDARD
 70
     0
 40
0.0
 41
1.0
 50
0.0
 71
     0
 42
0.0
  3
txt
  4

  0
STYLE
  5
17B
330
3
100
AcDbSymbolTableRecord
100
AcDbTextStyleTableRecord
  2
ARIAL_WIDE
 70
     0
 40
0.0
 41
1.25
 50
0.0
 71
     0
 42
0.2
  3
ARIAL.TTF
  4

1001
ACAD
1000
Arial
1071
       34
  0
ENDTAB
  0
TABLE
  2
VIEW
  5
5
330
0
100
AcDbSymbolTable
 70
     0
  0
ENDTAB
  0
TABLE
  2
UCS
  5
6
330
0
100
AcDbSymbolTable
 70
     0
  0
ENDTAB
  0
TABLE
  2
APPID
  5
8
330
0
100
AcDbSymbolTable
 70
     1
  0
APPID
  5
16
330
8
100
AcDbSymbolTableRecord
100
AcDbRegAppTableRecord
  2
ACAD
 70
     0
  0
ENDTAB
  0
TABLE
  2
DIMSTYLE
  5
9
330
0
100
AcDbSymbolTable
 70
     1
  0
DIMSTYLE
105
18
330
9
100
AcDbSymbolTableRecord
100
AcDbDimStyleTableRecord
  2
STANDARD
 70
     0
  3

  4

  5

  6

  7

 40
1.0
 41
0.18
 42
0.0625
 43
0.38
 44
0.18
 45
0.0
 46
0.0
 47
0.0
 48
0.0
140
0.18
141
0.09
142
0.0
143
25.4
144
1.0
145
0.0
146
1.0
147
0.09
 71
     0
 72
     0
 73
     1
 74
     1
 75
     0
 76
     0
 77
     0
 78
     0
170
     0
171
     2
172
     0
173
     0
174
     0
175
     0
176
     0
177
     0
178
     0
270
     2
271
     4
272
     4
273
     2
274
     2
340
17
275
     0
280
     0
281
     0
282
     0
283
     1
284
     0
285
     0
286
     0
287
     0
288
     0
  0
ENDTAB
  0
TABLE
  2
BLOCK_RECORD
  5
1
330
0
100
AcDbSymbolTable
 70
     0
  0
BLOCK_RECORD
  5
A
102
{ACAD_XDICTIONARY
360
1D2
102
}
330
1
100
AcDbSymbolTableRecord
100
AcDbBlockTableRecord
  2
*MODEL_SPACE
  0
BLOCK_RECORD
  5
B
102
{ACAD_XDICTIONARY
360
1D4
102
}
330
1
100
AcDbSymbolTableRecord
100
AcDbBlockTableRecord
  2
*PAPER_SPACE
  0
ENDTAB
  0
ENDSEC
  0
SECTION
  2
BLOCKS
  0
BLOCK
  5
D
330
A
100
AcDbEntity
  8
0
100
AcDbBlockBegin
  2
*MODEL_SPACE
 70
     0
 10
0.0
 20
0.0
 30
0.0
  3
*MODEL_SPACE
  1

  0
ENDBLK
  5
E
330
A
100
AcDbEntity
  8
0
100
AcDbBlockEnd
  0
BLOCK
  5
F
330
B
100
AcDbEntity
 67
     1
  8
0
100
AcDbBlockBegin
  2
*PAPER_SPACE
 70
     0
 10
0.0
 20
0.0
 30
0.0
  3
*PAPER_SPACE
  1

  0
ENDBLK
  5
10
330
B
100
AcDbEntity
 67
     1
  8
0
100
AcDbBlockEnd
  0
ENDSEC
  0
SECTION
  2
ENTITIES
  0
LWPOLYLINE
  5
2F
330
A
100
AcDbEntity
  8
ADP3DETAIL
  6
DASHDOT
 62
     1
100
AcDbPolyline
 90
        2
 70
   128
 43
0.0
 10
-17.18943380209702
 20
2.054399499729673
 10
-17.190651268763
 20
3.87333520272698
  0
LWPOLYLINE
  5
33
330
A
100
AcDbEntity
  8
ADP1DETAIL
  6
CONTINUOUS
 62
     7
100
AcDbPolyline
 90
        2
 70
   128
 43
0.0
 10
-16.44614021299314
 20
1.094899951899391
 10
-17.94614021299315
 20
1.094899951899391
  0
LWPOLYLINE
  5
37
330
A
100
AcDbEntity
  8
ADP1DETAIL
  6
CONTINUOUS
 62
     7
100
AcDbPolyline
 90
        2
 70
   128
 43
0.0
 10
-16.63364021299314
 20
1.219899951899391
 10
-17.75864021299315
 20
1.219899951899391
  0
LWPOLYLINE
  5
3B
330
A
100
AcDbEntity
  8
ADP1DETAIL
  6
CONTINUOUS
 62
     7
100
AcDbPolyline
 90
        2
 70
   128
 43
0.0
 10
-17.75864021299315
 20
1.219899951899391
 10
-17.82114021299315
 20
1.594899951899391
  0
LWPOLYLINE
  5
3F
330
A
100
AcDbEntity
  8
ADP1DETAIL
  6
CONTINUOUS
 62
     7
100
AcDbPolyline
 90
        2
 70
   128
 43
0.0
 10
-17.94614021299315
 20
1.094899951899391
 10
-17.94614021299315
 20
1.594899951899391
  0
LWPOLYLINE
  5
43
330
A
100
AcDbEntity
  8
ADP1DETAIL
  6
CONTINUOUS
 62
     7
100
AcDbPolyline
 90
        2
 70
   128
 43
0.0
 10
-17.94614021299315
 20
1.594899951899391
 10
-17.82114021299315
 20
1.594899951899391
  0
LWPOLYLINE
  5
47
330
A
100
AcDbEntity
  8
ADP1DETAIL
  6
CONTINUOUS
 62
     7
100
AcDbPolyline
 90
        2
 70
   128
 43
0.0
 10
-16.63364021299314
 20
1.219899951899391
 10
-16.57114021299315
 20
1.594899951899391
  0
LWPOLYLINE
  5
4B
330
A
100
AcDbEntity
  8
ADP1DETAIL
  6
CONTINUOUS
 62
     7
100
AcDbPolyline
 90
        2
 70
   128
 43
0.0
 10
-16.44614021299314
 20
1.094899951899391
 10
-16.44614021299314
 20
1.594899951899391
  0
LWPOLYLINE
  5
4F
330
A
100
AcDbEntity
  8
ADP1DETAIL
  6
CONTINUOUS
 62
     7
100
AcDbPolyline
 90
        2
 70
   128
 43
0.0
 10
-16.44614021299314
 20
1.594899951899391
 10
-16.57114021299315
 20
1.594899951899391
  0
ARC
  5
53
330
A
100
AcDbEntity
  8
ADP3DETAIL
  6
DASHDOT
 62
     1
100
AcDbCircle
 10
19.690651268763
 20
3.87333520272698
 30
0.0
 40
2.5
210
0.0
220
0.0
230
-1.0
100
AcDbArc
 50
90.04109245211006
 51
180.0
  0
ARC
  5
54
330
A
100
AcDbEntity
  8
ADP1DETAIL
  6
CONTINUOUS
 62
     7
100
AcDbCircle
 10
19.690651268763
 20
3.87333520272698
 30
0.0
 40
1.937999999999995
210
0.0
220
0.0
230
-1.0
100
AcDbArc
 50
90.04109245211003
 51
180.0
  0
ARC
  5
55
330
A
100
AcDbEntity
  8
ADP1DETAIL
  6
CONTINUOUS
 62
     7
100
AcDbCircle
 10
19.690651268763
 20
3.87333520272698
 30
0.0
 40
3.061999999999997
210
0.0
220
0.0
230
-1.0
100
AcDbArc
 50
90.04109245211008
 51
180.0
  0
ARC
  5
56
330
A
100
AcDbEntity
  8
ADP1DETAIL
  6
CONTINUOUS
 62
     7
100
AcDbCircle
 10
19.690651268763
 20
3.87333520272698
 30
0.0
 40
3.125
210
0.0
220
0.0
230
-1.0
100
AcDbArc
 50
90.04109245211004
 51
180.0
  0
ARC
  5
57
330
A
100
AcDbEntity
  8
ADP1DETAIL
  6
CONTINUOUS
 62
     7
100
AcDbCircle
 10
19.690651268763
 20
3.87333520272698
 30
0.0
 40
3.25
210
0.0
220
0.0
230
-1.0
100
AcDbArc
 50
90.04109245210999
 51
180.0
  0
ARC
  5
58
330
A
100
AcDbEntity
  8
ADP1DETAIL
  6
CONTINUOUS
 62
     7
100
AcDbCircle
 10
19.690651268763
 20
3.87333520272698
 30
0.0
 40
1.75
210
0.0
220
0.0
230
-1.0
100
AcDbArc
 50
90.04109245211004
 51
180.0
  0
ARC
  5
59
330
A
100
AcDbEntity
  8
ADP1DETAIL
  6
CONTINUOUS
 62
     7
100
AcDbCircle
 10
19.690651268763
 20
3.87333520272698
 30
0.0
 40
1.875
210
0.0
220
0.0
230
-1.0
100
AcDbArc
 50
90.04109245210997
 51
180.0
  0
LWPOLYLINE
  5
5A
330
A
100
AcDbEntity
  8
ADP3DETAIL
  6
DASHDOT
 62
     1
100
AcDbPolyline
 90
        2
 70
   128
 43
0.0
 10
-19.68885827244911
 20
6.373334559759742
 10
-21.64033951028531
 20
6.378472820031527
  0
LWPOLYLINE
  5
5E
330
A
100
AcDbEntity
  8
ADP1DETAIL
  6
CONTINUOUS
 62
     7
100
AcDbPolyline
 90
        2
 70
   128
 43
0.0
 10
-19.68832037355495
 20
7.123334366869568
 10
-21.18832037355495
 20
7.123334366869569
  0
LWPOLYLINE
  5
62
330
A
100
AcDbEntity
  8
ADP1DETAIL
  6
CONTINUOUS
 62
     7
100
AcDbPolyline
 90
        2
 70
   128
 43
0.0
 10
-19.68832037355495
 20
6.998346008941679
 10
-21.18832037355495
 20
6.998346008941679
  0
LWPOLYLINE
  5
66
330
A
100
AcDbEntity
  8
ADP1DETAIL
  6
CONTINUOUS
 62
     7
100
AcDbPolyline
 90
        2
 70
   128
 43
0.0
 10
-19.68832037355495
 20
6.935845377918969
 10
-21.18832037355495
 20
6.935845377918969
  0
LWPOLYLINE
  5
6A
330
A
100
AcDbEntity
  8
ADP1DETAIL
  6
CONTINUOUS
 62
     7
100
AcDbPolyline
 90
        2
 70
   128
 43
0.0
 10
-19.68939617134328
 20
5.748337153817018
 10
-21.18939617134328
 20
5.748337153817019
  0
LWPOLYLINE
  5
6E
330
A
100
AcDbEntity
  8
ADP1DETAIL
  6
CONTINUOUS
 62
     7
100
AcDbPolyline
 90
        2
 70
   128
 43
0.0
 10
-19.68939617134328
 20
5.810838251490669
 10
-21.18939617134328
 20
5.81083825149067
  0
LWPOLYLINE
  5
72
330
A
100
AcDbEntity
  8
ADP1DETAIL
  6
CONTINUOUS
 62
     7
100
AcDbPolyline
 90
        2
 70
   128
 43
0.0
 10
-21.18939617134328
 20
5.623335533925539
 10
-19.68939617134328
 20
5.623334752649912
  0
LWPOLYLINE
  5
76
330
A
100
AcDbEntity
  8
ADP1DETAIL
  6
CONTINUOUS
 62
     7
100
AcDbPolyline
 90
        2
 70
   128
 43
0.0
 10
-21.18832037355495
 20
7.123334366869569
 10
-21.18939617134328
 20
5.623335533925539
  0
LWPOLYLINE
  5
7A
330
A
100
AcDbEntity
  8
ADP1DETAIL
  6
CONTINUOUS
 62
     7
100
AcDbPolyline
 90
        2
 70
   128
 43
0.0
 10
-17.940651268763
 20
2.37333520272698
 10
-16.44065205003863
 20
2.37333520272698
  0
LWPOLYLINE
  5
7E
330
A
100
AcDbEntity
  8
ADP1DETAIL
  6
CONTINUOUS
 62
     7
100
AcDbPolyline
 90
        2
 70
   128
 43
0.0
 10
-17.7531518491391
 20
2.37333520272698
 10
-17.75315106786348
 20
3.87333520272698
  0
LWPOLYLINE
  5
82
330
A
100
AcDbEntity
  8
ADP1DETAIL
  6
CONTINUOUS
 62
     7
100
AcDbPolyline
 90
        2
 70
   128
 43
0.0
 10
-17.8156519121664
 20
2.37333520272698
 10
-17.81565113089077
 20
3.87333520272698
  0
LWPOLYLINE
  5
86
330
A
100
AcDbEntity
  8
ADP1DETAIL
  6
CONTINUOUS
 62
     7
100
AcDbPolyline
 90
        2
 70
   128
 43
0.0
 10
-17.940651268763
 20
3.87333520272698
 10
-17.940651268763
 20
2.37333520272698
  0
LWPOLYLINE
  5
8A
330
A
100
AcDbEntity
  8
ADP1DETAIL
  6
CONTINUOUS
 62
     7
100
AcDbPolyline
 90
        2
 70
   128
 43
0.0
 10
-16.44065205003863
 20
2.37333520272698
 10
-16.440651268763
 20
3.87333520272698
  0
LWPOLYLINE
  5
8E
330
A
100
AcDbEntity
  8
ADP1DETAIL
  6
CONTINUOUS
 62
     7
100
AcDbPolyline
 90
        2
 70
   128
 43
0.0
 10
-16.56565211797561
 20
2.37333520272698
 10
-16.56565133669998
 20
3.87333520272698
  0
LWPOLYLINE
  5
92
330
A
100
AcDbEntity
  8
ADP1DETAIL
  6
CONTINUOUS
 62
     7
100
AcDbPolyline
 90
        2
 70
   128
 43
0.0
 10
-16.62815215420867
 20
2.37333520272698
 10
-16.62815137293304
 20
3.87333520272698
  0
LWPOLYLINE
  5
96
330
A
100
AcDbEntity
  8
ADPDIM
  6
CONTINUOUS
 62
     3
 48
0.125
100
AcDbPolyline
 90
        2
 70
   128
 43
0.0
 10
-19.62563137646617
 20
3.875846130622759
 10
-18.8541306949762
 20
3.875846130622759
  0
LWPOLYLINE
  5
9A
330
A
100
AcDbEntity
  8
ADPDIM
  6
CONTINUOUS
 62
     3
 48
0.125
100
AcDbPolyline
 90
        2
 70
   128
 43
0.0
 10
-18.003151268763
 20
2.37333520272698
 10
-19.2141306949762
 20
2.373335202726981
  0
LWPOLYLINE
  5
9E
330
A
100
AcDbEntity
  8
ADPDIM
  6
CONTINUOUS
 62
     3
 48
0.125
100
AcDbPolyline
 90
        2
 70
   128
 43
0.0
 10
-19.0341306949762
 20
3.875846130622759
 10
-19.0341306949762
 20
3.49959066667487
  0
LWPOLYLINE
  5
A2
330
A
100
AcDbEntity
  8
ADPDIM
  6
CONTINUOUS
 62
     3
 48
0.125
100
AcDbPolyline
 90
        2
 70
   128
 43
0.0
 10
-19.0341306949762
 20
2.373335202726981
 10
-19.0341306949762
 20
2.74959066667487
  0
LWPOLYLINE
  5
A6
330
A
100
AcDbEntity
  8
ADPDIM
  6
CONTINUOUS
 62
     3
 48
0.125
100
AcDbPolyline
 90
        2
 70
   128
 43
0.0
 10
-18.9091306949762
 20
3.750846130622759
 10
-19.1591306949762
 20
4.000846130622758
  0
LWPOLYLINE
  5
AA
330
A
100
AcDbEntity
  8
ADPDIM
  6
CONTINUOUS
 62
     3
 48
0.125
100
AcDbPolyline
 90
        2
 70
   128
 43
0.0
 10
-18.9091306949762
 20
2.248335202726981
 10
-19.1591306949762
 20
2.498335202726981
  0
TEXT
  5
AE
330
A
100
AcDbEntity
  8
ADPDIM
 62
     3
 48
0.0
100
AcDbText
 10
-18.9716306949762
 20
2.87459066667487
 30
0.0
 40
0.125
  1
1 1/2
 50
90.0
 72
     5
 11
-18.9716306949762
 21
3.37459066667487
 31
0.0
100
AcDbText
  0
LWPOLYLINE
  5
AF
330
A
100
AcDbEntity
  8
ADPDIM
  6
CONTINUOUS
 62
     3
 48
0.125
100
AcDbPolyline
 90
        2
 70
   128
 43
0.0
 10
-16.57114021299315
 20
1.657399951899391
 10
-16.57114021299315
 20
1.87971266598806
  0
LWPOLYLINE
  5
B3
330
A
100
AcDbEntity
  8
ADPDIM
  6
CONTINUOUS
 62
     3
 48
0.125
100
AcDbPolyline
 90
        2
 70
   128
 43
0.0
 10
-16.44614021299314
 20
1.657399951899391
 10
-16.44614021299314
 20
1.87971266598806
  0
LWPOLYLINE
  5
B7
330
A
100
AcDbEntity
  8
ADPDIM
  6
CONTINUOUS
 62
     3
 48
0.125
100
AcDbPolyline
 90
        2
 70
   128
 43
0.0
 10
-16.57114021299315
 20
1.69971266598806
 10
-16.82114021299315
 20
1.69971266598806
  0
LWPOLYLINE
  5
BB
330
A
100
AcDbEntity
  8
ADPDIM
  6
CONTINUOUS
 62
     3
 48
0.125
100
AcDbPolyline
 90
        2
 70
   128
 43
0.0
 10
-16.44614021299314
 20
1.69971266598806
 10
-16.19614021299315
 20
1.69971266598806
  0
LWPOLYLINE
  5
BF
330
A
100
AcDbEntity
  8
ADPDIM
  6
CONTINUOUS
 62
     3
 48
0.125
100
AcDbPolyline
 90
        2
 70
   128
 43
0.0
 10
-16.69614021299315
 20
1.57471266598806
 10
-16.44614021299314
 20
1.82471266598806
  0
LWPOLYLINE
  5
C3
330
A
100
AcDbEntity
  8
ADPDIM
  6
CONTINUOUS
 62
     3
 48
0.125
100
AcDbPolyline
 90
        2
 70
   128
 43
0.0
 10
-16.57114021299315
 20
1.57471266598806
 10
-16.32114021299314
 20
1.82471266598806
  0
TEXT
  5
C7
330
A
100
AcDbEntity
  8
ADPDIM
 62
     3
 48
0.0
100
AcDbText
 10
-16.07114021299315
 20
1.63721266598806
 30
0.0
 40
0.125
  1
1/8
 72
     5
 11
-15.77947354632648
 21
1.63721266598806
 31
0.0
100
AcDbText
  0
LWPOLYLINE
  5
C8
330
A
100
AcDbEntity
  8
ADPDIM
  6
CONTINUOUS
 62
     3
 48
0.125
100
AcDbPolyline
 90
        2
 70
   128
 43
0.0
 10
-17.94614021299315
 20
1.032399951899391
 10
-17.94614021299315
 20
0.6732615666909345
  0
LWPOLYLINE
  5
CC
330
A
100
AcDbEntity
  8
ADPDIM
  6
CONTINUOUS
 62
     3
 48
0.125
100
AcDbPolyline
 90
        2
 70
   128
 43
0.0
 10
-16.44614021299314
 20
1.032399951899391
 10
-16.44614021299314
 20
0.6732615666909345
  0
LWPOLYLINE
  5
D0
330
A
100
AcDbEntity
  8
ADPDIM
  6
CONTINUOUS
 62
     3
 48
0.125
100
AcDbPolyline
 90
        2
 70
   128
 43
0.0
 10
-17.94614021299315
 20
0.8532615666909343
 10
-17.57114021299314
 20
0.8532615666909343
  0
LWPOLYLINE
  5
D4
330
A
100
AcDbEntity
  8
ADPDIM
  6
CONTINUOUS
 62
     3
 48
0.125
100
AcDbPolyline
 90
        2
 70
   128
 43
0.0
 10
-16.44614021299314
 20
0.8532615666909343
 10
-16.82114021299315
 20
0.8532615666909343
  0
LWPOLYLINE
  5
D8
330
A
100
AcDbEntity
  8
ADPDIM
  6
CONTINUOUS
 62
     3
 48
0.125
100
AcDbPolyline
 90
        2
 70
   128
 43
0.0
 10
-18.07114021299314
 20
0.7282615666909345
 10
-17.82114021299315
 20
0.9782615666909343
  0
LWPOLYLINE
  5
DC
330
A
100
AcDbEntity
  8
ADPDIM
  6
CONTINUOUS
 62
     3
 48
0.125
100
AcDbPolyline
 90
        2
 70
   128
 43
0.0
 10
-16.57114021299315
 20
0.7282615666909345
 10
-16.32114021299314
 20
0.9782615666909343
  0
TEXT
  5
E0
330
A
100
AcDbEntity
  8
ADPDIM
 62
     3
 48
0.0
100
AcDbText
 10
-17.44614021299315
 20
0.7907615666909345
 30
0.0
 40
0.125
  1
1 1/2
 72
     5
 11
-16.94614021299314
 21
0.7907615666909345
 31
0.0
100
AcDbText
  0
LWPOLYLINE
  5
E1
330
A
100
AcDbEntity
  8
ADPDIM
  6
CONTINUOUS
 62
     3
 48
0.125
100
AcDbPolyline
 90
        2
 70
   128
 43
0.0
 10
-18.00864021299314
 20
1.594899951899391
 10
-18.61022859476321
 20
1.594899951899391
  0
LWPOLYLINE
  5
E5
330
A
100
AcDbEntity
  8
ADPDIM
  6
CONTINUOUS
 62
     3
 48
0.125
100
AcDbPolyline
 90
        2
 70
   128
 43
0.0
 10
-18.00864021299314
 20
1.094899951899391
 10
-18.61022859476321
 20
1.094899951899391
  0
LWPOLYLINE
  5
E9
330
A
100
AcDbEntity
  8
ADPDIM
  6
CONTINUOUS
 62
     3
 48
0.125
100
AcDbPolyline
 90
        2
 70
   128
 43
0.0
 10
-18.43022859476321
 20
1.594899951899391
 10
-18.43022859476321
 20
1.844899951899391
  0
LWPOLYLINE
  5
ED
330
A
100
AcDbEntity
  8
ADPDIM
  6
CONTINUOUS
 62
     3
 48
0.125
100
AcDbPolyline
 90
        2
 70
   128
 43
0.0
 10
-18.43022859476321
 20
1.094899951899391
 10
-18.43022859476321
 20
0.8448999518993915
  0
LWPOLYLINE
  5
F1
330
A
100
AcDbEntity
  8
ADPDIM
  6
CONTINUOUS
 62
     3
 48
0.125
100
AcDbPolyline
 90
        2
 70
   128
 43
0.0
 10
-18.30522859476321
 20
1.469899951899391
 10
-18.55522859476321
 20
1.719899951899391
  0
LWPOLYLINE
  5
F5
330
A
100
AcDbEntity
  8
ADPDIM
  6
CONTINUOUS
 62
     3
 48
0.125
100
AcDbPolyline
 90
        2
 70
   128
 43
0.0
 10
-18.30522859476321
 20
0.9698999518993915
 10
-18.55522859476321
 20
1.219899951899391
  0
TEXT
  5
F9
330
A
100
AcDbEntity
  8
ADPDIM
 62
     3
 48
0.0
100
AcDbText
 10
-18.36772859476321
 20
0.428233285232725
 30
0.0
 40
0.125
  1
1/2
 50
90.0
 72
     5
 11
-18.36772859476321
 21
0.7198999518993916
 31
0.0
100
AcDbText
  0
LWPOLYLINE
  5
FA
330
A
100
AcDbEntity
  8
ADPDIM
  6
CONTINUOUS
 62
     3
 48
0.125
100
AcDbPolyline
 90
        2
 70
   128
 43
0.0
 10
-17.91973714945735
 20
5.637949376432924
 10
-19.68813137646617
 20
3.875846130622759
  0
LWPOLYLINE
  5
FE
330
A
100
AcDbEntity
  8
ADPDIM
  6
CONTINUOUS
 62
     3
 48
0.125
100
AcDbPolyline
 90
        2
 70
   128
 43
0.0
 10
-17.92005214673734
 20
5.461172961782345
 10
-17.91942215217737
 20
5.814725791083504
  0
TEXT
  5
102
330
A
100
AcDbEntity
  8
ADPDIM
 62
     3
 48
0.0
100
AcDbText
 10
-20.20480549323698
 20
3.272778789299902
 30
0.0
 40
0.1250000000000006
  1
R2 1/2
 50
44.89790495731462
 72
     5
 11
-19.7325617280888
 21
3.743342568954821
 31
0.0
100
AcDbText
  0
LWPOLYLINE
  5
103
330
A
100
AcDbEntity
  8
DEFPOINTS
  6
CONTINUOUS
 62
     3
 48
0.125
100
AcDbPolyline
 90
        2
 70
   128
 43
0.0
 10
-19.68813137646617
 20
3.875846130622759
 10
-19.68813137646617
 20
3.875846130622759
  0
LWPOLYLINE
  5
107
330
A
100
AcDbEntity
  8
DEFPOINTS
  6
CONTINUOUS
 62
     3
 48
0.125
100
AcDbPolyline
 90
        2
 70
   128
 43
0.0
 10
-19.68813137646617
 20
3.875846130622759
 10
-19.68813137646617
 20
3.875846130622759
  0
LWPOLYLINE
  5
10B
330
A
100
AcDbEntity
  8
DEFPOINTS
  6
CONTINUOUS
 62
     3
 48
0.125
100
AcDbPolyline
 90
        2
 70
   128
 43
0.0
 10
-17.940651268763
 20
2.373335202726981
 10
-17.940651268763
 20
2.373335202726981
  0
LWPOLYLINE
  5
10F
330
A
100
AcDbEntity
  8
DEFPOINTS
  6
CONTINUOUS
 62
     3
 48
0.125
100
AcDbPolyline
 90
        2
 70
   128
 43
0.0
 10
-17.940651268763
 20
2.373335202726981
 10
-17.940651268763
 20
2.373335202726981
  0
LWPOLYLINE
  5
113
330
A
100
AcDbEntity
  8
DEFPOINTS
  6
CONTINUOUS
 62
     3
 48
0.125
100
AcDbPolyline
 90
        2
 70
   128
 43
0.0
 10
-19.0341306949762
 20
2.373335202726981
 10
-19.0341306949762
 20
2.373335202726981
  0
LWPOLYLINE
  5
117
330
A
100
AcDbEntity
  8
DEFPOINTS
  6
CONTINUOUS
 62
     3
 48
0.125
100
AcDbPolyline
 90
        2
 70
   128
 43
0.0
 10
-19.0341306949762
 20
2.373335202726981
 10
-19.0341306949762
 20
2.373335202726981
  0
LWPOLYLINE
  5
11B
330
A
100
AcDbEntity
  8
DEFPOINTS
  6
CONTINUOUS
 62
     3
 48
0.125
100
AcDbPolyline
 90
        2
 70
   128
 43
0.0
 10
-16.57114021299315
 20
1.594899951899391
 10
-16.57114021299315
 20
1.594899951899391
  0
LWPOLYLINE
  5
11F
330
A
100
AcDbEntity
  8
DEFPOINTS
  6
CONTINUOUS
 62
     3
 48
0.125
100
AcDbPolyline
 90
        2
 70
   128
 43
0.0
 10
-16.57114021299315
 20
1.594899951899391
 10
-16.57114021299315
 20
1.594899951899391
  0
LWPOLYLINE
  5
123
330
A
100
AcDbEntity
  8
DEFPOINTS
  6
CONTINUOUS
 62
     3
 48
0.125
100
AcDbPolyline
 90
        2
 70
   128
 43
0.0
 10
-16.44614021299314
 20
1.594899951899391
 10
-16.44614021299314
 20
1.594899951899391
  0
LWPOLYLINE
  5
127
330
A
100
AcDbEntity
  8
DEFPOINTS
  6
CONTINUOUS
 62
     3
 48
0.125
100
AcDbPolyline
 90
        2
 70
   128
 43
0.0
 10
-16.44614021299314
 20
1.594899951899391
 10
-16.44614021299314
 20
1.594899951899391
  0
LWPOLYLINE
  5
12B
330
A
100
AcDbEntity
  8
DEFPOINTS
  6
CONTINUOUS
 62
     3
 48
0.125
100
AcDbPolyline
 90
        2
 70
   128
 43
0.0
 10
-16.44614021299314
 20
1.69971266598806
 10
-16.44614021299314
 20
1.69971266598806
  0
LWPOLYLINE
  5
12F
330
A
100
AcDbEntity
  8
DEFPOINTS
  6
CONTINUOUS
 62
     3
 48
0.125
100
AcDbPolyline
 90
        2
 70
   128
 43
0.0
 10
-16.44614021299314
 20
1.69971266598806
 10
-16.44614021299314
 20
1.69971266598806
  0
LWPOLYLINE
  5
133
330
A
100
AcDbEntity
  8
DEFPOINTS
  6
CONTINUOUS
 62
     3
 48
0.125
100
AcDbPolyline
 90
        2
 70
   128
 43
0.0
 10
-17.94614021299315
 20
1.09489995189939
 10
-17.94614021299315
 20
1.09489995189939
  0
LWPOLYLINE
  5
137
330
A
100
AcDbEntity
  8
DEFPOINTS
  6
CONTINUOUS
 62
     3
 48
0.125
100
AcDbPolyline
 90
        2
 70
   128
 43
0.0
 10
-17.94614021299315
 20
1.09489995189939
 10
-17.94614021299315
 20
1.09489995189939
  0
LWPOLYLINE
  5
13B
330
A
100
AcDbEntity
  8
DEFPOINTS
  6
CONTINUOUS
 62
     3
 48
0.125
100
AcDbPolyline
 90
        2
 70
   128
 43
0.0
 10
-16.44614021299314
 20
1.09489995189939
 10
-16.44614021299314
 20
1.09489995189939
  0
LWPOLYLINE
  5
13F
330
A
100
AcDbEntity
  8
DEFPOINTS
  6
CONTINUOUS
 62
     3
 48
0.125
100
AcDbPolyline
 90
        2
 70
   128
 43
0.0
 10
-16.44614021299314
 20
1.09489995189939
 10
-16.44614021299314
 20
1.09489995189939
  0
LWPOLYLINE
  5
143
330
A
100
AcDbEntity
  8
DEFPOINTS
  6
CONTINUOUS
 62
     3
 48
0.125
100
AcDbPolyline
 90
        2
 70
   128
 43
0.0
 10
-16.44614021299314
 20
0.8532615666909341
 10
-16.44614021299314
 20
0.8532615666909341
  0
LWPOLYLINE
  5
147
330
A
100
AcDbEntity
  8
DEFPOINTS
  6
CONTINUOUS
 62
     3
 48
0.125
100
AcDbPolyline
 90
        2
 70
   128
 43
0.0
 10
-16.44614021299314
 20
0.8532615666909341
 10
-16.44614021299314
 20
0.8532615666909341
  0
LWPOLYLINE
  5
14B
330
A
100
AcDbEntity
  8
DEFPOINTS
  6
CONTINUOUS
 62
     3
 48
0.125
100
AcDbPolyline
 90
        2
 70
   128
 43
0.0
 10
-17.94614021299315
 20
1.594899951899391
 10
-17.94614021299315
 20
1.594899951899391
  0
LWPOLYLINE
  5
14F
330
A
100
AcDbEntity
  8
DEFPOINTS
  6
CONTINUOUS
 62
     3
 48
0.125
100
AcDbPolyline
 90
        2
 70
   128
 43
0.0
 10
-17.94614021299315
 20
1.594899951899391
 10
-17.94614021299315
 20
1.594899951899391
  0
LWPOLYLINE
  5
153
330
A
100
AcDbEntity
  8
DEFPOINTS
  6
CONTINUOUS
 62
     3
 48
0.125
100
AcDbPolyline
 90
        2
 70
   128
 43
0.0
 10
-17.94614021299315
 20
1.09489995189939
 10
-17.94614021299315
 20
1.09489995189939
  0
LWPOLYLINE
  5
157
330
A
100
AcDbEntity
  8
DEFPOINTS
  6
CONTINUOUS
 62
     3
 48
0.125
100
AcDbPolyline
 90
        2
 70
   128
 43
0.0
 10
-17.94614021299315
 20
1.09489995189939
 10
-17.94614021299315
 20
1.09489995189939
  0
LWPOLYLINE
  5
15B
330
A
100
AcDbEntity
  8
DEFPOINTS
  6
CONTINUOUS
 62
     3
 48
0.125
100
AcDbPolyline
 90
        2
 70
   128
 43
0.0
 10
-18.43022859476321
 20
1.09489995189939
 10
-18.43022859476321
 20
1.09489995189939
  0
LWPOLYLINE
  5
15F
330
A
100
AcDbEntity
  8
DEFPOINTS
  6
CONTINUOUS
 62
     3
 48
0.125
100
AcDbPolyline
 90
        2
 70
   128
 43
0.0
 10
-18.43022859476321
 20
1.09489995189939
 10
-18.43022859476321
 20
1.09489995189939
  0
LWPOLYLINE
  5
163
330
A
100
AcDbEntity
  8
DEFPOINTS
  6
CONTINUOUS
 62
     3
 48
0.125
100
AcDbPolyline
 90
        2
 70
   128
 43
0.0
 10
-17.91973714945735
 20
5.637949376432924
 10
-17.91973714945735
 20
5.637949376432924
  0
LWPOLYLINE
  5
167
330
A
100
AcDbEntity
  8
DEFPOINTS
  6
CONTINUOUS
 62
     3
 48
0.125
100
AcDbPolyline
 90
        2
 70
   128
 43
0.0
 10
-17.91973714945735
 20
5.637949376432924
 10
-17.91973714945735
 20
5.637949376432924
  0
LWPOLYLINE
  5
16B
330
A
100
AcDbEntity
  8
DEFPOINTS
  6
CONTINUOUS
 62
     3
 48
0.125
100
AcDbPolyline
 90
        2
 70
   128
 43
0.0
 10
-19.690651268763
 20
3.873335202726979
 10
-19.690651268763
 20
3.873335202726979
  0
TEXT
  5
17C
330
A
100
AcDbEntity
  8
ADPDIM
100
AcDbText
 10
-26.32713855765175
 20
0.0340228542268464
 30
0.0
 40
0.125
  1
J U L I U S  B L U M  &  C O . ,  I N C .      ( 8 0 0 )  5 2 6 - 6 2 9 3        W W W . J U L I U S B L U M . C O M        P A R T  N o .  6 5 0 - C C
 41
1.25
  7
ARIAL_WIDE
 72
     1
 11
-19.60748260608285
 21
0.1590228542268464
 31
0.0
100
AcDbText
 73
     3
  0
ENDSEC
  0
SECTION
  2
OBJECTS
  0
DICTIONARY
  5
19
330
0
100
AcDbDictionary
  3
ACAD_GROUP
350
1A
  3
ACAD_LAYOUT
350
174
  3
ACAD_MLINESTYLE
350
1B
  3
ACAD_PLOTSETTINGS
350
175
  3
ACAD_PLOTSTYLENAME
350
172
  3
ACDBHEADERROUNDTRIPXREC
350
2DC
  3
ACDBVARIABLEDICTIONARY
350
1DE
  0
DICTIONARY
  5
1D2
330
A
100
AcDbDictionary
280
     1
  3
ACAD_LAYOUTSELFREF
360
2FC
  0
DICTIONARY
  5
1D4
330
B
100
AcDbDictionary
280
     1
  3
ACAD_LAYOUTSELFREF
360
2FD
  0
DICTIONARY
  5
1A
102
{ACAD_REACTORS
330
19
102
}
330
19
100
AcDbDictionary
  0
DICTIONARY
  5
174
102
{ACAD_REACTORS
330
19
102
}
330
19
100
AcDbDictionary
  0
DICTIONARY
  5
1B
102
{ACAD_REACTORS
330
19
102
}
330
19
100
AcDbDictionary
  3
STANDARD
350
1C
  0
DICTIONARY
  5
175
102
{ACAD_REACTORS
330
19
102
}
330
19
100
AcDbDictionary
  0
ACDBDICTIONARYWDFLT
  5
172
102
{ACAD_REACTORS
330
19
102
}
330
19
100
AcDbDictionary
281
     1
  3
Normal
350
173
100
AcDbDictionaryWithDefault
340
173
  0
DICTIONARY
  5
2DC
102
{ACAD_REACTORS
330
19
102
}
330
19
100
AcDbDictionary
  3
CEPSNTYPE
350
2E6
  3
FINGERPRINTGUID
350
2E7
  3
HYPERLINKBASE
350
2DF
  3
INSUNITS
350
2E5
  3
LAYOUTDICT
350
2E1
  3
LWETCUNION
350
2E4
  3
PLOTSETDICT
350
2E2
  3
PLOTSTYLNAMDICT
350
2E3
  3
PSVPSCALE
350
2E9
  3
PUCSBASE
350
2EC
  3
PUCSORGBACK
350
2F2
  3
PUCSORGBOTTOM
350
2EE
  3
PUCSORGFRONT
350
2F1
  3
PUCSORGLEFT
350
2EF
  3
PUCSORGRIGHT
350
2F0
  3
PUCSORGTOP
350
2ED
  3
PUCSORTHOREF
350
2EA
  3
PUCSORTHOVIEW
350
2EB
  3
STYLESHEET
350
2E0
  3
TSTACKALIGN
350
2DD
  3
TSTACKSIZE
350
2DE
  3
UCSBASE
350
2F5
  3
UCSORGBACK
350
2FB
  3
UCSORGBOTTOM
350
2F7
  3
UCSORGFRONT
350
2FA
  3
UCSORGLEFT
350
2F8
  3
UCSORGRIGHT
350
2F9
  3
UCSORGTOP
350
2F6
  3
UCSORTHOREF
350
2F3
  3
UCSORTHOVIEW
350
2F4
  3
VERSIONGUID
350
2E8
  0
DICTIONARY
  5
1DE
102
{ACAD_REACTORS
330
19
102
}
330
19
100
AcDbDictionary
  3
DIMASSOC
350
1DF
  0
XRECORD
  5
2FC
102
{ACAD_REACTORS
330
1D2
102
}
330
1D2
100
AcDbXrecord
340
A
  0
XRECORD
  5
2FD
102
{ACAD_REACTORS
330
1D4
102
}
330
1D4
100
AcDbXrecord
340
B
  0
MLINESTYLE
  5
1C
102
{ACAD_REACTORS
330
1B
102
}
330
1B
100
AcDbMlineStyle
  2
STANDARD
 70
     0
  3

 62
     0
 51
90.00000000000019
 52
90.00000000000019
 71
     2
 49
0.5
 62
   256
  6
BYLAYER
 49
-0.5
 62
   256
  6
BYLAYER
  0
ACDBPLACEHOLDER
  5
173
102
{ACAD_REACTORS
330
172
102
}
330
172
100
AcDbPlaceHolder
280
     0
  0
XRECORD
  5
2E6
102
{ACAD_REACTORS
330
2DC
102
}
330
2DC
100
AcDbXrecord
 90
        0
  0
XRECORD
  5
2E7
102
{ACAD_REACTORS
330
2DC
102
}
330
2DC
100
AcDbXrecord
  1
{F6F02989-2918-48FA-90D5-4CDBE9DE80C9}
  0
XRECORD
  5
2DF
102
{ACAD_REACTORS
330
2DC
102
}
330
2DC
100
AcDbXrecord
  1

  0
XRECORD
  5
2E5
102
{ACAD_REACTORS
330
2DC
102
}
330
2DC
100
AcDbXrecord
 90
        0
  0
XRECORD
  5
2E1
102
{ACAD_REACTORS
330
2DC
102
}
330
2DC
100
AcDbXrecord
340
174
  0
XRECORD
  5
2E4
102
{ACAD_REACTORS
330
2DC
102
}
330
2DC
100
AcDbXrecord
 90
    14877
  0
XRECORD
  5
2E2
102
{ACAD_REACTORS
330
2DC
102
}
330
2DC
100
AcDbXrecord
340
175
  0
XRECORD
  5
2E3
102
{ACAD_REACTORS
330
2DC
102
}
330
2DC
100
AcDbXrecord
340
172
  0
XRECORD
  5
2E9
102
{ACAD_REACTORS
330
2DC
102
}
330
2DC
100
AcDbXrecord
 40
0.0
  0
XRECORD
  5
2EC
102
{ACAD_REACTORS
330
2DC
102
}
330
2DC
100
AcDbXrecord
340
0
  0
XRECORD
  5
2F2
102
{ACAD_REACTORS
330
2DC
102
}
330
2DC
100
AcDbXrecord
 10
0.0
 20
0.0
 30
0.0
  0
XRECORD
  5
2EE
102
{ACAD_REACTORS
330
2DC
102
}
330
2DC
100
AcDbXrecord
 10
0.0
 20
0.0
 30
0.0
  0
XRECORD
  5
2F1
102
{ACAD_REACTORS
330
2DC
102
}
330
2DC
100
AcDbXrecord
 10
0.0
 20
0.0
 30
0.0
  0
XRECORD
  5
2EF
102
{ACAD_REACTORS
330
2DC
102
}
330
2DC
100
AcDbXrecord
 10
0.0
 20
0.0
 30
0.0
  0
XRECORD
  5
2F0
102
{ACAD_REACTORS
330
2DC
102
}
330
2DC
100
AcDbXrecord
 10
0.0
 20
0.0
 30
0.0
  0
XRECORD
  5
2ED
102
{ACAD_REACTORS
330
2DC
102
}
330
2DC
100
AcDbXrecord
 10
0.0
 20
0.0
 30
0.0
  0
XRECORD
  5
2EA
102
{ACAD_REACTORS
330
2DC
102
}
330
2DC
100
AcDbXrecord
340
0
  0
XRECORD
  5
2EB
102
{ACAD_REACTORS
330
2DC
102
}
330
2DC
100
AcDbXrecord
 70
     0
  0
XRECORD
  5
2E0
102
{ACAD_REACTORS
330
2DC
102
}
330
2DC
100
AcDbXrecord
  1

  0
XRECORD
  5
2DD
102
{ACAD_REACTORS
330
2DC
102
}
330
2DC
100
AcDbXrecord
 90
        1
  0
XRECORD
  5
2DE
102
{ACAD_REACTORS
330
2DC
102
}
330
2DC
100
AcDbXrecord
 90
       70
  0
XRECORD
  5
2F5
102
{ACAD_REACTORS
330
2DC
102
}
330
2DC
100
AcDbXrecord
340
0
  0
XRECORD
  5
2FB
102
{ACAD_REACTORS
330
2DC
102
}
330
2DC
100
AcDbXrecord
 10
0.0
 20
0.0
 30
0.0
  0
XRECORD
  5
2F7
102
{ACAD_REACTORS
330
2DC
102
}
330
2DC
100
AcDbXrecord
 10
0.0
 20
0.0
 30
0.0
  0
XRECORD
  5
2FA
102
{ACAD_REACTORS
330
2DC
102
}
330
2DC
100
AcDbXrecord
 10
0.0
 20
0.0
 30
0.0
  0
XRECORD
  5
2F8
102
{ACAD_REACTORS
330
2DC
102
}
330
2DC
100
AcDbXrecord
 10
0.0
 20
0.0
 30
0.0
  0
XRECORD
  5
2F9
102
{ACAD_REACTORS
330
2DC
102
}
330
2DC
100
AcDbXrecord
 10
0.0
 20
0.0
 30
0.0
  0
XRECORD
  5
2F6
102
{ACAD_REACTORS
330
2DC
102
}
330
2DC
100
AcDbXrecord
 10
0.0
 20
0.0
 30
0.0
  0
XRECORD
  5
2F3
102
{ACAD_REACTORS
330
2DC
102
}
330
2DC
100
AcDbXrecord
340
0
  0
XRECORD
  5
2F4
102
{ACAD_REACTORS
330
2DC
102
}
330
2DC
100
AcDbXrecord
 70
     0
  0
XRECORD
  5
2E8
102
{ACAD_REACTORS
330
2DC
102
}
330
2DC
100
AcDbXrecord
  1
{47EA6FBB-DA5C-47F3-A5AC-E9144E247210}
  0
DICTIONARYVAR
  5
1DF
102
{ACAD_REACTORS
330
1DE
102
}
330
1DE
100
DictionaryVariables
280
     0
  1
1
  0
ENDSEC
  0
EOF
