  0
SECTION
  2
HEADER
  9
$ACADVER
  1
AC1014
  9
$ACADMAINTVER
 70
     9
  9
$DWGCODEPAGE
  3
ANSI_1252
  9
$INSBASE
 10
0.0
 20
0.0
 30
0.0
  9
$EXTMIN
 10
-10.71013757299476
 20
-5.468879584904407
 30
0.0
  9
$EXTMAX
 10
2.692936267387231
 20
2.15615645057314
 30
0.0
  9
$LIMMIN
 10
0.0
 20
0.0
  9
$LIMMAX
 10
0.0
 20
0.0
  9
$ORTHOMODE
 70
     1
  9
$REGENMODE
 70
     1
  9
$FILLMODE
 70
     1
  9
$QTEXTMODE
 70
     0
  9
$MIRRTEXT
 70
     1
  9
$DRAGMODE
 70
     0
  9
$LTSCALE
 40
1.0
  9
$OSMODE
 70
    37
  9
$ATTMODE
 70
     1
  9
$TEXTSIZE
 40
0.0
  9
$TRACEWID
 40
0.05
  9
$TEXTSTYLE
  7
STANDARD
  9
$CLAYER
  8
0
  9
$CELTYPE
  6
CONTINUOUS
  9
$CECOLOR
 62
   256
  9
$CELTSCALE
 40
1.0
  9
$DELOBJ
 70
     1
  9
$DISPSILH
 70
     0
  9
$DIMSCALE
 40
1.0
  9
$DIMASZ
 40
0.18
  9
$DIMEXO
 40
0.0625
  9
$DIMDLI
 40
0.38
  9
$DIMRND
 40
0.0
  9
$DIMDLE
 40
0.0
  9
$DIMEXE
 40
0.18
  9
$DIMTP
 40
0.0
  9
$DIMTM
 40
0.0
  9
$DIMTXT
 40
0.18
  9
$DIMCEN
 40
0.09
  9
$DIMTSZ
 40
0.0
  9
$DIMTOL
 70
     0
  9
$DIMLIM
 70
     0
  9
$DIMTIH
 70
     1
  9
$DIMTOH
 70
     1
  9
$DIMSE1
 70
     0
  9
$DIMSE2
 70
     0
  9
$DIMTAD
 70
     0
  9
$DIMZIN
 70
     0
  9
$DIMBLK
  1

  9
$DIMASO
 70
     1
  9
$DIMSHO
 70
     1
  9
$DIMPOST
  1

  9
$DIMAPOST
  1

  9
$DIMALT
 70
     0
  9
$DIMALTD
 70
     2
  9
$DIMALTF
 40
25.4
  9
$DIMLFAC
 40
1.0
  9
$DIMTOFL
 70
     0
  9
$DIMTVP
 40
0.0
  9
$DIMTIX
 70
     0
  9
$DIMSOXD
 70
     0
  9
$DIMSAH
 70
     0
  9
$DIMBLK1
  1

  9
$DIMBLK2
  1

  9
$DIMSTYLE
  2
STANDARD
  9
$DIMCLRD
 70
     0
  9
$DIMCLRE
 70
     0
  9
$DIMCLRT
 70
     0
  9
$DIMTFAC
 40
1.0
  9
$DIMGAP
 40
0.09
  9
$DIMJUST
 70
     0
  9
$DIMSD1
 70
     0
  9
$DIMSD2
 70
     0
  9
$DIMTOLJ
 70
     1
  9
$DIMTZIN
 70
     0
  9
$DIMALTZ
 70
     0
  9
$DIMALTTZ
 70
     0
  9
$DIMFIT
 70
     3
  9
$DIMUPT
 70
     0
  9
$DIMUNIT
 70
     2
  9
$DIMDEC
 70
     4
  9
$DIMTDEC
 70
     4
  9
$DIMALTU
 70
     2
  9
$DIMALTTD
 70
     2
  9
$DIMTXSTY
  7
STANDARD
  9
$DIMAUNIT
 70
     0
  9
$LUNITS
 70
     2
  9
$LUPREC
 70
     4
  9
$SKETCHINC
 40
0.1
  9
$FILLETRAD
 40
0.0
  9
$AUNITS
 70
     0
  9
$AUPREC
 70
     0
  9
$MENU
  1
acad
  9
$ELEVATION
 40
0.0
  9
$PELEVATION
 40
0.0
  9
$THICKNESS
 40
0.0
  9
$LIMCHECK
 70
     0
  9
$BLIPMODE
 70
     0
  9
$CHAMFERA
 40
0.0
  9
$CHAMFERB
 40
0.0
  9
$CHAMFERC
 40
0.0
  9
$CHAMFERD
 40
0.0
  9
$SKPOLY
 70
     0
  9
$TDCREATE
 40
2444971.791666666
  9
$TDUPDATE
 40
2452297.074439919
  9
$TDINDWG
 40
0.0258033333
  9
$TDUSRTIMER
 40
0.0258033333
  9
$USRTIMER
 70
     1
  9
$ANGBASE
 50
0.0
  9
$ANGDIR
 70
     0
  9
$PDMODE
 70
     0
  9
$PDSIZE
 40
0.0
  9
$PLINEWID
 40
0.0
  9
$COORDS
 70
     2
  9
$SPLFRAME
 70
     0
  9
$SPLINETYPE
 70
     6
  9
$SPLINESEGS
 70
     8
  9
$ATTDIA
 70
     0
  9
$ATTREQ
 70
     1
  9
$HANDLING
 70
 22529
  9
$HANDSEED
  5
289
  9
$SURFTAB1
 70
     6
  9
$SURFTAB2
 70
     6
  9
$SURFTYPE
 70
     6
  9
$SURFU
 70
     6
  9
$SURFV
 70
     6
  9
$UCSNAME
  2

  9
$UCSORG
 10
0.0
 20
0.0
 30
0.0
  9
$UCSXDIR
 10
1.0
 20
0.0
 30
0.0
  9
$UCSYDIR
 10
0.0
 20
1.0
 30
0.0
  9
$PUCSNAME
  2

  9
$PUCSORG
 10
0.0
 20
0.0
 30
0.0
  9
$PUCSXDIR
 10
1.0
 20
0.0
 30
0.0
  9
$PUCSYDIR
 10
0.0
 20
1.0
 30
0.0
  9
$USERI1
 70
     0
  9
$USERI2
 70
     0
  9
$USERI3
 70
     0
  9
$USERI4
 70
     0
  9
$USERI5
 70
     0
  9
$USERR1
 40
0.0
  9
$USERR2
 40
0.0
  9
$USERR3
 40
0.0
  9
$USERR4
 40
0.0
  9
$USERR5
 40
0.0
  9
$WORLDVIEW
 70
     1
  9
$SHADEDGE
 70
     3
  9
$SHADEDIF
 70
    70
  9
$TILEMODE
 70
     1
  9
$MAXACTVP
 70
    16
  9
$PINSBASE
 10
0.0
 20
0.0
 30
0.0
  9
$PLIMCHECK
 70
     0
  9
$PEXTMIN
 10
1.000000000000000E+20
 20
1.000000000000000E+20
 30
1.000000000000000E+20
  9
$PEXTMAX
 10
-1.000000000000000E+20
 20
-1.000000000000000E+20
 30
-1.000000000000000E+20
  9
$PLIMMIN
 10
0.0
 20
0.0
  9
$PLIMMAX
 10
12.0
 20
9.0
  9
$UNITMODE
 70
     0
  9
$VISRETAIN
 70
     0
  9
$PLINEGEN
 70
     0
  9
$PSLTSCALE
 70
     0
  9
$TREEDEPTH
 70
  3020
  9
$PICKSTYLE
 70
     1
  9
$CMLSTYLE
  2
STANDARD
  9
$CMLJUST
 70
     0
  9
$CMLSCALE
 40
1.0
  9
$PROXYGRAPHICS
 70
     1
  9
$MEASUREMENT
 70
     0
  0
ENDSEC
  0
SECTION
  2
CLASSES
  0
CLASS
  1
LWPOLYLINE
  2
AcDbPolyline
  3
AutoCAD 2000
 90
        0
280
     0
281
     1
  0
CLASS
  1
IMAGE
  2
AcDbRasterImage
  3
ISM
 90
      127
280
     0
281
     1
  0
CLASS
  1
OLE2FRAME
  2
AcDbOle2Frame
  3
AutoCAD 2000
 90
        0
280
     0
281
     1
  0
CLASS
  1
HATCH
  2
AcDbHatch
  3
AutoCAD 2000
 90
        0
280
     0
281
     1
  0
CLASS
  1
DICTIONARYVAR
  2
AcDbDictionaryVar
  3
AutoCAD 2000
 90
        0
280
     0
281
     0
  0
CLASS
  1
RASTERVARIABLES
  2
AcDbRasterVariables
  3
ISM
 90
        0
280
     0
281
     0
  0
CLASS
  1
IMAGEDEF
  2
AcDbRasterImageDef
  3
ISM
 90
        0
280
     0
281
     0
  0
CLASS
  1
IMAGEDEF_REACTOR
  2
AcDbRasterImageDefReactor
  3
ISM
 90
        1
280
     0
281
     0
  0
CLASS
  1
IDBUFFER
  2
AcDbIdBuffer
  3
AutoCAD 2000
 90
        0
280
     0
281
     0
  0
CLASS
  1
SPATIAL_FILTER
  2
AcDbSpatialFilter
  3
AutoCAD 2000
 90
        0
280
     0
281
     0
  0
CLASS
  1
XRECORD
  2
AcDbXrecord
  3
AutoCAD 2000
 90
        0
280
     0
281
     0
  0
CLASS
  1
SORTENTSTABLE
  2
AcDbSortentsTable
  3
AutoCAD 2000
 90
        0
280
     0
281
     0
  0
CLASS
  1
LAYER_INDEX
  2
AcDbLayerIndex
  3
AutoCAD 2000
 90
        0
280
     0
281
     0
  0
CLASS
  1
SPATIAL_INDEX
  2
AcDbSpatialIndex
  3
AutoCAD 2000
 90
        0
280
     0
281
     0
  0
CLASS
  1
OBJECT_PTR
  2
CAseDLPNTableRecord
  3
ASE-LPNTableRecord
 90
        1
280
     0
281
     0
  0
CLASS
  1
ACDBDICTIONARYWDFLT
  2
AcDbDictionaryWithDefault
  3
AutoCAD 2000
 90
        0
280
     0
281
     0
  0
CLASS
  1
ACDBPLACEHOLDER
  2
AcDbPlaceHolder
  3
AutoCAD 2000
 90
        0
280
     0
281
     0
  0
CLASS
  1
LAYOUT
  2
AcDbLayout
  3
AutoCAD 2000
 90
        0
280
     0
281
     0
  0
CLASS
  1
LONG_TRANSACTION
  2
AcDbLongTransaction
  3
AutoCAD 2000
 90
        0
280
     0
281
     0
  0
CLASS
  1
LWPOLYLINE
  2
AcDbPolyline
  3
AutoCAD 2000
 90
        0
280
     0
281
     1
  0
CLASS
  1
HATCH
  2
AcDbHatch
  3
AutoCAD 2000
 90
        0
280
     0
281
     1
  0
CLASS
  1
XRECORD
  2
AcDbXrecord
  3
AutoCAD 2000
 90
        0
280
     0
281
     0
  0
CLASS
  1
LONG_TRANSACTION
  2
AcDbLongTransaction
  3
AutoCAD 2000
 90
        0
280
     0
281
     0
  0
CLASS
  1
LWPOLYLINE
  2
AcDbPolyline
  3
AutoCAD 2000
 90
        0
280
     0
281
     1
  0
CLASS
  1
HATCH
  2
AcDbHatch
  3
AutoCAD 2000
 90
        0
280
     0
281
     1
  0
CLASS
  1
XRECORD
  2
AcDbXrecord
  3
AutoCAD 2000
 90
        0
280
     0
281
     0
  0
CLASS
  1
LONG_TRANSACTION
  2
AcDbLongTransaction
  3
AutoCAD 2000
 90
        0
280
     0
281
     0
  0
CLASS
  1
LWPOLYLINE
  2
AcDbPolyline
  3
AutoCAD 2000
 90
        0
280
     0
281
     1
  0
CLASS
  1
HATCH
  2
AcDbHatch
  3
AutoCAD 2000
 90
        0
280
     0
281
     1
  0
CLASS
  1
XRECORD
  2
AcDbXrecord
  3
AutoCAD 2000
 90
        0
280
     0
281
     0
  0
CLASS
  1
LONG_TRANSACTION
  2
AcDbLongTransaction
  3
AutoCAD 2000
 90
        0
280
     0
281
     0
  0
CLASS
  1
LWPOLYLINE
  2
AcDbPolyline
  3
AutoCAD 2000
 90
        0
280
     0
281
     1
  0
CLASS
  1
HATCH
  2
AcDbHatch
  3
AutoCAD 2000
 90
        0
280
     0
281
     1
  0
CLASS
  1
XRECORD
  2
AcDbXrecord
  3
AutoCAD 2000
 90
        0
280
     0
281
     0
  0
CLASS
  1
LONG_TRANSACTION
  2
AcDbLongTransaction
  3
AutoCAD 2000
 90
        0
280
     0
281
     0
  0
CLASS
  1
LWPOLYLINE
  2
AcDbPolyline
  3
AutoCAD 2000
 90
        0
280
     0
281
     1
  0
CLASS
  1
HATCH
  2
AcDbHatch
  3
AutoCAD 2000
 90
        0
280
     0
281
     1
  0
CLASS
  1
XRECORD
  2
AcDbXrecord
  3
AutoCAD 2000
 90
        0
280
     0
281
     0
  0
ENDSEC
  0
SECTION
  2
TABLES
  0
TABLE
  2
VPORT
  5
7
330
0
100
AcDbSymbolTable
 70
     3
  0
VPORT
  5
2D
330
7
100
AcDbSymbolTableRecord
100
AcDbViewportTableRecord
  2
DCADVPORT
 70
     0
 10
-8.446575295231291
 20
-4.773976213733607
 11
0.6677432493853686
 21
1.934762588221639
 12
6.209999999999999
 22
9.019999999999999
 13
0.0
 23
0.0
 14
1.0
 24
1.0
 15
0.0
 25
0.0
 16
0.0
 26
0.0
 36
1.0
 17
0.0
 27
0.0
 37
0.0
 40
18.04
 41
0.688564
 42
50.0
 43
1.0
 44
1.0
 50
0.0
 51
0.0
 71
     0
 72
   100
 73
     1
 74
     1
 75
     0
 76
     0
 77
     0
 78
     0
  0
VPORT
  5
266
330
7
100
AcDbSymbolTableRecord
100
AcDbViewportTableRecord
  2
*ACTIVE
 70
     0
 10
0.0
 20
0.0
 11
1.0
 21
1.0
 12
-3.997533849248108
 22
-1.656402522644762
 13
0.0
 23
0.0
 14
1.0
 24
1.0
 15
0.0
 25
0.0
 16
0.0
 26
0.0
 36
1.0
 17
0.0
 27
0.0
 37
0.0
 40
8.589329322590153
 41
1.570528967254408
 42
50.0
 43
0.0
 44
0.0
 50
0.0
 51
0.0
 71
     0
 72
   100
 73
     1
 74
     1
 75
     0
 76
     0
 77
     0
 78
     0
  0
ENDTAB
  0
TABLE
  2
LTYPE
  5
4
330
0
100
AcDbSymbolTable
 70
     2
  0
LTYPE
  5
11
330
4
100
AcDbSymbolTableRecord
100
AcDbLinetypeTableRecord
  2
BYBLOCK
 70
     0
  3

 72
    65
 73
     0
 40
0.0
  0
LTYPE
  5
12
330
4
100
AcDbSymbolTableRecord
100
AcDbLinetypeTableRecord
  2
BYLAYER
 70
     0
  3

 72
    65
 73
     0
 40
0.0
  0
LTYPE
  5
13
330
4
100
AcDbSymbolTableRecord
100
AcDbLinetypeTableRecord
  2
CONTINUOUS
 70
     0
  3
Solid line
 72
    65
 73
     0
 40
0.0
  0
LTYPE
  5
1E
330
4
100
AcDbSymbolTableRecord
100
AcDbLinetypeTableRecord
  2
CONTINUOUS
 70
     0
  3
Solid line
 72
    65
 73
     0
 40
0.0
  0
ENDTAB
  0
TABLE
  2
LAYER
  5
2
330
0
100
AcDbSymbolTable
 70
     4
  0
LAYER
  5
14
330
2
100
AcDbSymbolTableRecord
100
AcDbLayerTableRecord
  2
0
 70
     0
 62
     7
  6
CONTINUOUS
  0
LAYER
  5
2A
330
2
100
AcDbSymbolTableRecord
100
AcDbLayerTableRecord
  2
ADPDIM
 70
     0
 62
     3
  6
CONTINUOUS
  0
LAYER
  5
2B
330
2
100
AcDbSymbolTableRecord
100
AcDbLayerTableRecord
  2
ADP1DETAIL
 70
     0
 62
   250
  6
CONTINUOUS
  0
LAYER
  5
2C
330
2
100
AcDbSymbolTableRecord
100
AcDbLayerTableRecord
  2
DEFPOINTS
 70
     0
 62
   250
  6
CONTINUOUS
  0
ENDTAB
  0
TABLE
  2
STYLE
  5
3
330
0
100
AcDbSymbolTable
 70
     2
  0
STYLE
  5
17
330
3
100
AcDbSymbolTableRecord
100
AcDbTextStyleTableRecord
  2
STANDARD
 70
     0
 40
0.0
 41
1.0
 50
0.0
 71
     0
 42
0.0
  3
txt
  4

  0
STYLE
  5
106
330
3
100
AcDbSymbolTableRecord
100
AcDbTextStyleTableRecord
  2
ARIAL_WIDE
 70
     0
 40
0.0
 41
1.25
 50
0.0
 71
     0
 42
0.2
  3
ARIAL.TTF
  4

1001
ACAD
1000
Arial
1071
       34
  0
ENDTAB
  0
TABLE
  2
VIEW
  5
5
330
0
100
AcDbSymbolTable
 70
     0
  0
ENDTAB
  0
TABLE
  2
UCS
  5
6
330
0
100
AcDbSymbolTable
 70
     0
  0
ENDTAB
  0
TABLE
  2
APPID
  5
8
330
0
100
AcDbSymbolTable
 70
     1
  0
APPID
  5
16
330
8
100
AcDbSymbolTableRecord
100
AcDbRegAppTableRecord
  2
ACAD
 70
     0
  0
ENDTAB
  0
TABLE
  2
DIMSTYLE
  5
9
330
0
100
AcDbSymbolTable
 70
     1
  0
DIMSTYLE
105
18
330
9
100
AcDbSymbolTableRecord
100
AcDbDimStyleTableRecord
  2
STANDARD
 70
     0
  3

  4

  5

  6

  7

 40
1.0
 41
0.18
 42
0.0625
 43
0.38
 44
0.18
 45
0.0
 46
0.0
 47
0.0
 48
0.0
140
0.18
141
0.09
142
0.0
143
25.4
144
1.0
145
0.0
146
1.0
147
0.09
 71
     0
 72
     0
 73
     1
 74
     1
 75
     0
 76
     0
 77
     0
 78
     0
170
     0
171
     2
172
     0
173
     0
174
     0
175
     0
176
     0
177
     0
178
     0
270
     2
271
     4
272
     4
273
     2
274
     2
340
17
275
     0
280
     0
281
     0
282
     0
283
     1
284
     0
285
     0
286
     0
287
     0
288
     0
  0
ENDTAB
  0
TABLE
  2
BLOCK_RECORD
  5
1
330
0
100
AcDbSymbolTable
 70
     0
  0
BLOCK_RECORD
  5
A
102
{ACAD_XDICTIONARY
360
15D
102
}
330
1
100
AcDbSymbolTableRecord
100
AcDbBlockTableRecord
  2
*MODEL_SPACE
  0
BLOCK_RECORD
  5
B
102
{ACAD_XDICTIONARY
360
15F
102
}
330
1
100
AcDbSymbolTableRecord
100
AcDbBlockTableRecord
  2
*PAPER_SPACE
  0
ENDTAB
  0
ENDSEC
  0
SECTION
  2
BLOCKS
  0
BLOCK
  5
D
330
A
100
AcDbEntity
  8
0
100
AcDbBlockBegin
  2
*MODEL_SPACE
 70
     0
 10
0.0
 20
0.0
 30
0.0
  3
*MODEL_SPACE
  1

  0
ENDBLK
  5
E
330
A
100
AcDbEntity
  8
0
100
AcDbBlockEnd
  0
BLOCK
  5
F
330
B
100
AcDbEntity
 67
     1
  8
0
100
AcDbBlockBegin
  2
*PAPER_SPACE
 70
     0
 10
0.0
 20
0.0
 30
0.0
  3
*PAPER_SPACE
  1

  0
ENDBLK
  5
10
330
B
100
AcDbEntity
 67
     1
  8
0
100
AcDbBlockEnd
  0
ENDSEC
  0
SECTION
  2
ENTITIES
  0
ARC
  5
2E
330
A
100
AcDbEntity
  8
ADP1DETAIL
  6
CONTINUOUS
 62
     7
100
AcDbCircle
 10
4.398866754722186
 20
-0.6272082484846795
 30
0.0
 40
4.03208073125936
210
0.0
220
0.0
230
-1.0
100
AcDbArc
 50
233.2613773858751
 51
335.9633526900332
  0
ARC
  5
2F
330
A
100
AcDbEntity
  8
ADP1DETAIL
  6
CONTINUOUS
 62
     7
100
AcDbCircle
 10
4.398866754722186
 20
-0.6272082484846795
 30
0.0
 40
4.15708073125936
210
0.0
220
0.0
230
-1.0
100
AcDbArc
 50
233.2613773858751
 51
335.9633526900332
  0
ARC
  5
30
330
A
100
AcDbEntity
  8
ADP1DETAIL
  6
CONTINUOUS
 62
     7
100
AcDbCircle
 10
4.397270338750182
 20
-0.6353730571701331
 30
0.0
 40
3.010055115797002
210
0.0
220
0.0
230
-1.0
100
AcDbArc
 50
233.1845693627062
 51
335.6674312085709
  0
ARC
  5
31
330
A
100
AcDbEntity
  8
ADP1DETAIL
  6
CONTINUOUS
 62
     7
100
AcDbCircle
 10
5.052191000921236
 20
-0.0005593957405863
 30
0.0
 40
5.052191031890333
210
0.0
220
0.0
230
-1.0
100
AcDbArc
 50
179.9936560167902
 51
231.6163448633779
  0
ARC
  5
32
330
A
100
AcDbEntity
  8
ADP1DETAIL
  6
CONTINUOUS
 62
     7
100
AcDbCircle
 10
5.768886143271121
 20
-0.58301407466052
 30
0.0
 40
2.392808399314169
210
0.0
220
0.0
230
-1.0
100
AcDbArc
 50
43.98307854056024
 51
149.7123225654701
  0
ARC
  5
33
330
A
100
AcDbEntity
  8
ADP1DETAIL
  6
CONTINUOUS
 62
     7
100
AcDbCircle
 10
5.768886143271121
 20
-0.58301407466052
 30
0.0
 40
2.51780839931417
210
0.0
220
0.0
230
-1.0
100
AcDbArc
 50
43.98307854056023
 51
149.7123225654701
  0
ARC
  5
34
330
A
100
AcDbEntity
  8
ADP1DETAIL
  6
CONTINUOUS
 62
     7
100
AcDbCircle
 10
5.007057215883173
 20
-0.0122342743625282
 30
0.0
 40
1.452640503229329
210
0.0
220
0.0
230
-1.0
100
AcDbArc
 50
152.9606084022235
 51
357.2423107178198
  0
ARC
  5
35
330
A
100
AcDbEntity
  8
ADP1DETAIL
  6
CONTINUOUS
 62
     7
100
AcDbCircle
 10
4.397270338750182
 20
-0.6353730571701331
 30
0.0
 40
2.885055115797001
210
0.0
220
0.0
230
-1.0
100
AcDbArc
 50
233.1845693627062
 51
335.6674312085709
  0
ARC
  5
36
330
A
100
AcDbEntity
  8
ADP1DETAIL
  6
CONTINUOUS
 62
     7
100
AcDbCircle
 10
5.007057215883173
 20
-0.0122342743625282
 30
0.0
 40
1.577640503229329
210
0.0
220
0.0
230
-1.0
100
AcDbArc
 50
152.9606084022235
 51
357.2423107178198
  0
ARC
  5
37
330
A
100
AcDbEntity
  8
ADP1DETAIL
  6
CONTINUOUS
 62
     7
100
AcDbCircle
 10
5.171635692678991
 20
-1.053385219990724
 30
0.0
 40
3.153545308008331
210
0.0
220
0.0
230
-1.0
100
AcDbArc
 50
337.2156623131694
 51
42.68739787587061
  0
ARC
  5
38
330
A
100
AcDbEntity
  8
ADP1DETAIL
  6
CONTINUOUS
 62
     7
100
AcDbCircle
 10
5.171635692678991
 20
-1.053385219990724
 30
0.0
 40
3.278545308008331
210
0.0
220
0.0
230
-1.0
100
AcDbArc
 50
337.2156623131694
 51
42.68739787587061
  0
ARC
  5
39
330
A
100
AcDbEntity
  8
ADP1DETAIL
  6
CONTINUOUS
 62
     7
100
AcDbCircle
 10
5.258134669333782
 20
-1.044534424854683
 30
0.0
 40
2.05716879569571
210
0.0
220
0.0
230
-1.0
100
AcDbArc
 50
336.2651980356843
 51
33.18661288293644
  0
ARC
  5
3A
330
A
100
AcDbEntity
  8
ADP1DETAIL
  6
CONTINUOUS
 62
     7
100
AcDbCircle
 10
5.258134669333782
 20
-1.044534424854683
 30
0.0
 40
1.93216879569571
210
0.0
220
0.0
230
-1.0
100
AcDbArc
 50
336.2651980356843
 51
33.18661288293644
  0
ARC
  5
3B
330
A
100
AcDbEntity
  8
ADP1DETAIL
  6
CONTINUOUS
 62
     7
100
AcDbCircle
 10
6.631184697128169
 20
-0.0547384422178007
 30
0.0
 40
0.3782157435466217
210
0.0
220
0.0
230
-1.0
100
AcDbArc
 50
15.53330883168337
 51
109.6793964557757
  0
ARC
  5
3C
330
A
100
AcDbEntity
  8
ADP1DETAIL
  6
CONTINUOUS
 62
     7
100
AcDbCircle
 10
6.631184697128169
 20
-0.0547384422178007
 30
0.0
 40
0.2532157435466216
210
0.0
220
0.0
230
-1.0
100
AcDbArc
 50
15.53330883168338
 51
109.6793964557757
  0
ARC
  5
3D
330
A
100
AcDbEntity
  8
ADP1DETAIL
  6
CONTINUOUS
 62
     7
100
AcDbCircle
 10
6.092555236479554
 20
-0.0163774450834643
 30
0.0
 40
0.4955389433761401
210
0.0
220
0.0
230
-1.0
100
AcDbArc
 50
351.6735415686679
 51
23.81168168018207
  0
ARC
  5
3E
330
A
100
AcDbEntity
  8
ADP1DETAIL
  6
CONTINUOUS
 62
     7
100
AcDbCircle
 10
6.092555236479554
 20
-0.0163774450834643
 30
0.0
 40
0.3705389433761406
210
0.0
220
0.0
230
-1.0
100
AcDbArc
 50
351.6735415686679
 51
23.81168168018207
  0
ARC
  5
3F
330
A
100
AcDbEntity
  8
ADP1DETAIL
  6
CONTINUOUS
 62
     7
100
AcDbCircle
 10
6.509544961021478
 20
0.1993155273828543
 30
0.0
 40
0.1022313726887881
210
0.0
220
0.0
230
-1.0
100
AcDbArc
 50
93.21135823545089
 51
220.2797199005076
  0
ARC
  5
40
330
A
100
AcDbEntity
  8
ADP1DETAIL
  6
CONTINUOUS
 62
     7
100
AcDbCircle
 10
4.767647495551194
 20
-0.1167358298439798
 30
0.0
 40
3.647235682794725
210
0.0
220
0.0
230
-1.0
100
AcDbArc
 50
178.1367640578427
 51
233.4304746336953
  0
ARC
  5
41
330
A
100
AcDbEntity
  8
ADP1DETAIL
  6
CONTINUOUS
 62
     7
100
AcDbCircle
 10
5.052191000921236
 20
-0.0005593957405863
 30
0.0
 40
4.927191031890333
210
0.0
220
0.0
230
-1.0
100
AcDbArc
 50
179.9936560167902
 51
231.6163448633779
  0
ARC
  5
42
330
A
100
AcDbEntity
  8
ADP1DETAIL
  6
CONTINUOUS
 62
     7
100
AcDbCircle
 10
4.767647495551194
 20
-0.1167358298439798
 30
0.0
 40
3.522235682794725
210
0.0
220
0.0
230
-1.0
100
AcDbArc
 50
178.1367640578427
 51
233.4304746336953
  0
LWPOLYLINE
  5
43
330
A
100
AcDbEntity
  8
ADP1DETAIL
  6
CONTINUOUS
 62
     7
100
AcDbPolyline
 90
        2
 70
   128
 43
0.0
 10
-1.061423417281297
 20
0.5001159526870431
 10
-1.123923417281297
 20
0.8751159526870429
  0
LWPOLYLINE
  5
47
330
A
100
AcDbEntity
  8
ADP1DETAIL
  6
CONTINUOUS
 62
     7
100
AcDbPolyline
 90
        2
 70
   128
 43
0.0
 10
-1.248923417281297
 20
0.3751159526870429
 10
-1.248923417281297
 20
0.8751159526870429
  0
LWPOLYLINE
  5
4B
330
A
100
AcDbEntity
  8
ADP1DETAIL
  6
CONTINUOUS
 62
     7
100
AcDbPolyline
 90
        2
 70
   128
 43
0.0
 10
-0.186423417281298
 20
0.5001159526870431
 10
-0.123923417281298
 20
0.8751159526870429
  0
LWPOLYLINE
  5
4F
330
A
100
AcDbEntity
  8
ADP1DETAIL
  6
CONTINUOUS
 62
     7
100
AcDbPolyline
 90
        2
 70
   128
 43
0.0
 10
0.001076582718702
 20
0.3751159526870429
 10
0.001076582718702
 20
0.8751159526870429
  0
LWPOLYLINE
  5
53
330
A
100
AcDbEntity
  8
ADP1DETAIL
  6
CONTINUOUS
 62
     7
100
AcDbPolyline
 90
        2
 70
   128
 43
0.0
 10
-1.24727407391419
 20
-0.0022143149037766
 10
0.0
 20
0.0
  0
LWPOLYLINE
  5
57
330
A
100
AcDbEntity
  8
ADP1DETAIL
  6
CONTINUOUS
 62
     7
100
AcDbPolyline
 90
        2
 70
   128
 43
0.0
 10
0.001076582718702
 20
0.3751159526870429
 10
-1.248923417281297
 20
0.3751159526870429
  0
LWPOLYLINE
  5
5B
330
A
100
AcDbEntity
  8
ADP1DETAIL
  6
CONTINUOUS
 62
     7
100
AcDbPolyline
 90
        2
 70
   128
 43
0.0
 10
-0.186423417281298
 20
0.5001159526870431
 10
-1.061423417281297
 20
0.5001159526870431
  0
LWPOLYLINE
  5
5F
330
A
100
AcDbEntity
  8
ADP1DETAIL
  6
CONTINUOUS
 62
     7
100
AcDbPolyline
 90
        2
 70
   128
 43
0.0
 10
-1.248923417281297
 20
0.8751159526870429
 10
-1.123923417281297
 20
0.8751159526870429
  0
LWPOLYLINE
  5
63
330
A
100
AcDbEntity
  8
ADP1DETAIL
  6
CONTINUOUS
 62
     7
100
AcDbPolyline
 90
        2
 70
   128
 43
0.0
 10
0.001076582718702
 20
0.8751159526870429
 10
-0.123923417281298
 20
0.8751159526870429
  0
LWPOLYLINE
  5
67
330
A
100
AcDbEntity
  8
ADPDIM
  6
CONTINUOUS
 62
     3
 48
0.125
100
AcDbPolyline
 90
        2
 70
   128
 43
0.0
 10
-1.311423417281297
 20
0.8751159526870429
 10
-1.913011799051358
 20
0.8751159526870429
  0
LWPOLYLINE
  5
6B
330
A
100
AcDbEntity
  8
ADPDIM
  6
CONTINUOUS
 62
     3
 48
0.125
100
AcDbPolyline
 90
        2
 70
   128
 43
0.0
 10
-1.311423417281297
 20
0.3751159526870429
 10
-1.913011799051358
 20
0.375115952687043
  0
LWPOLYLINE
  5
6F
330
A
100
AcDbEntity
  8
ADPDIM
  6
CONTINUOUS
 62
     3
 48
0.125
100
AcDbPolyline
 90
        2
 70
   128
 43
0.0
 10
-1.733011799051358
 20
0.8751159526870429
 10
-1.733011799051358
 20
1.125115952687042
  0
LWPOLYLINE
  5
73
330
A
100
AcDbEntity
  8
ADPDIM
  6
CONTINUOUS
 62
     3
 48
0.125
100
AcDbPolyline
 90
        2
 70
   128
 43
0.0
 10
-1.733011799051358
 20
0.375115952687043
 10
-1.733011799051358
 20
0.125115952687043
  0
LWPOLYLINE
  5
77
330
A
100
AcDbEntity
  8
ADPDIM
  6
CONTINUOUS
 62
     3
 48
0.125
100
AcDbPolyline
 90
        2
 70
   128
 43
0.0
 10
-1.608011799051358
 20
0.7501159526870431
 10
-1.858011799051358
 20
1.000115952687043
  0
LWPOLYLINE
  5
7B
330
A
100
AcDbEntity
  8
ADPDIM
  6
CONTINUOUS
 62
     3
 48
0.125
100
AcDbPolyline
 90
        2
 70
   128
 43
0.0
 10
-1.608011799051358
 20
0.250115952687043
 10
-1.858011799051358
 20
0.5001159526870431
  0
TEXT
  5
7F
330
A
100
AcDbEntity
  8
ADPDIM
 62
     3
 48
0.0
100
AcDbText
 10
-1.670511799051358
 20
-0.2915507139796236
 30
0.0
 40
0.125
  1
1/2
 50
90.0
 72
     5
 11
-1.670511799051358
 21
0.000115952687043
 31
0.0
100
AcDbText
  0
LWPOLYLINE
  5
80
330
A
100
AcDbEntity
  8
ADPDIM
  6
CONTINUOUS
 62
     3
 48
0.125
100
AcDbPolyline
 90
        2
 70
   128
 43
0.0
 10
-1.248923417281297
 20
0.3126159526870429
 10
-1.248923417281297
 20
-0.0165685111847664
  0
LWPOLYLINE
  5
84
330
A
100
AcDbEntity
  8
ADPDIM
  6
CONTINUOUS
 62
     3
 48
0.125
100
AcDbPolyline
 90
        2
 70
   128
 43
0.0
 10
0.001076582718702
 20
0.3126159526870429
 10
0.001076582718702
 20
-0.0165685111847664
  0
LWPOLYLINE
  5
88
330
A
100
AcDbEntity
  8
ADPDIM
  6
CONTINUOUS
 62
     3
 48
0.125
100
AcDbPolyline
 90
        2
 70
   128
 43
0.0
 10
-1.248923417281297
 20
0.1634314888152335
 10
-0.9989234172812979
 20
0.1634314888152335
  0
LWPOLYLINE
  5
8C
330
A
100
AcDbEntity
  8
ADPDIM
  6
CONTINUOUS
 62
     3
 48
0.125
100
AcDbPolyline
 90
        2
 70
   128
 43
0.0
 10
0.001076582718702
 20
0.1634314888152335
 10
-0.248923417281298
 20
0.1634314888152335
  0
LWPOLYLINE
  5
90
330
A
100
AcDbEntity
  8
ADPDIM
  6
CONTINUOUS
 62
     3
 48
0.125
100
AcDbPolyline
 90
        2
 70
   128
 43
0.0
 10
-1.373923417281297
 20
0.0384314888152336
 10
-1.123923417281297
 20
0.2884314888152335
  0
LWPOLYLINE
  5
94
330
A
100
AcDbEntity
  8
ADPDIM
  6
CONTINUOUS
 62
     3
 48
0.125
100
AcDbPolyline
 90
        2
 70
   128
 43
0.0
 10
-0.123923417281298
 20
0.0384314888152336
 10
0.126076582718702
 20
0.2884314888152335
  0
TEXT
  5
98
330
A
100
AcDbEntity
  8
ADPDIM
 62
     3
 48
0.0
100
AcDbText
 10
-0.8739234172812979
 20
0.1009314888152335
 30
0.0
 40
0.125
  1
1 1/4
 72
     5
 11
-0.373923417281298
 21
0.1009314888152335
 31
0.0
100
AcDbText
  0
LWPOLYLINE
  5
99
330
A
100
AcDbEntity
  8
ADPDIM
  6
CONTINUOUS
 62
     3
 48
0.125
100
AcDbPolyline
 90
        2
 70
   128
 43
0.0
 10
-0.123923417281298
 20
0.9376159526870429
 10
-0.123923417281298
 20
1.159928666775712
  0
LWPOLYLINE
  5
9D
330
A
100
AcDbEntity
  8
ADPDIM
  6
CONTINUOUS
 62
     3
 48
0.125
100
AcDbPolyline
 90
        2
 70
   128
 43
0.0
 10
0.001076582718702
 20
0.9376159526870429
 10
0.001076582718702
 20
1.159928666775712
  0
LWPOLYLINE
  5
A1
330
A
100
AcDbEntity
  8
ADPDIM
  6
CONTINUOUS
 62
     3
 48
0.125
100
AcDbPolyline
 90
        2
 70
   128
 43
0.0
 10
-0.123923417281298
 20
0.9799286667757119
 10
-0.373923417281298
 20
0.9799286667757119
  0
LWPOLYLINE
  5
A5
330
A
100
AcDbEntity
  8
ADPDIM
  6
CONTINUOUS
 62
     3
 48
0.125
100
AcDbPolyline
 90
        2
 70
   128
 43
0.0
 10
0.001076582718702
 20
0.9799286667757119
 10
0.251076582718702
 20
0.9799286667757119
  0
LWPOLYLINE
  5
A9
330
A
100
AcDbEntity
  8
ADPDIM
  6
CONTINUOUS
 62
     3
 48
0.125
100
AcDbPolyline
 90
        2
 70
   128
 43
0.0
 10
-0.248923417281298
 20
0.8549286667757119
 10
0.001076582718702
 20
1.104928666775712
  0
LWPOLYLINE
  5
AD
330
A
100
AcDbEntity
  8
ADPDIM
  6
CONTINUOUS
 62
     3
 48
0.125
100
AcDbPolyline
 90
        2
 70
   128
 43
0.0
 10
-0.123923417281298
 20
0.8549286667757119
 10
0.126076582718702
 20
1.104928666775712
  0
TEXT
  5
B1
330
A
100
AcDbEntity
  8
ADPDIM
 62
     3
 48
0.0
100
AcDbText
 10
0.376076582718702
 20
0.9174286667757119
 30
0.0
 40
0.1250000000000001
  1
1/8
 72
     5
 11
0.6677432493853686
 21
0.9174286667757119
 31
0.0
100
AcDbText
  0
LWPOLYLINE
  5
B2
330
A
100
AcDbEntity
  8
DEFPOINTS
  6
CONTINUOUS
 62
     3
 48
0.125
100
AcDbPolyline
 90
        2
 70
   128
 43
0.0
 10
-1.248923417281296
 20
0.8751159526870424
 10
-1.248923417281296
 20
0.8751159526870424
  0
LWPOLYLINE
  5
B6
330
A
100
AcDbEntity
  8
DEFPOINTS
  6
CONTINUOUS
 62
     3
 48
0.125
100
AcDbPolyline
 90
        2
 70
   128
 43
0.0
 10
-1.248923417281296
 20
0.8751159526870424
 10
-1.248923417281296
 20
0.8751159526870424
  0
LWPOLYLINE
  5
BA
330
A
100
AcDbEntity
  8
DEFPOINTS
  6
CONTINUOUS
 62
     3
 48
0.125
100
AcDbPolyline
 90
        2
 70
   128
 43
0.0
 10
-1.248923417281296
 20
0.3751159526870427
 10
-1.248923417281296
 20
0.3751159526870427
  0
LWPOLYLINE
  5
BE
330
A
100
AcDbEntity
  8
DEFPOINTS
  6
CONTINUOUS
 62
     3
 48
0.125
100
AcDbPolyline
 90
        2
 70
   128
 43
0.0
 10
-1.248923417281296
 20
0.3751159526870427
 10
-1.248923417281296
 20
0.3751159526870427
  0
LWPOLYLINE
  5
C2
330
A
100
AcDbEntity
  8
DEFPOINTS
  6
CONTINUOUS
 62
     3
 48
0.125
100
AcDbPolyline
 90
        2
 70
   128
 43
0.0
 10
-1.733011799051358
 20
0.3751159526870427
 10
-1.733011799051358
 20
0.3751159526870427
  0
LWPOLYLINE
  5
C6
330
A
100
AcDbEntity
  8
DEFPOINTS
  6
CONTINUOUS
 62
     3
 48
0.125
100
AcDbPolyline
 90
        2
 70
   128
 43
0.0
 10
-1.733011799051358
 20
0.3751159526870427
 10
-1.733011799051358
 20
0.3751159526870427
  0
LWPOLYLINE
  5
CA
330
A
100
AcDbEntity
  8
DEFPOINTS
  6
CONTINUOUS
 62
     3
 48
0.125
100
AcDbPolyline
 90
        2
 70
   128
 43
0.0
 10
-1.248923417281296
 20
0.3751159526870427
 10
-1.248923417281296
 20
0.3751159526870427
  0
LWPOLYLINE
  5
CE
330
A
100
AcDbEntity
  8
DEFPOINTS
  6
CONTINUOUS
 62
     3
 48
0.125
100
AcDbPolyline
 90
        2
 70
   128
 43
0.0
 10
-1.248923417281296
 20
0.3751159526870427
 10
-1.248923417281296
 20
0.3751159526870427
  0
LWPOLYLINE
  5
D2
330
A
100
AcDbEntity
  8
DEFPOINTS
  6
CONTINUOUS
 62
     3
 48
0.125
100
AcDbPolyline
 90
        2
 70
   128
 43
0.0
 10
0.0010765827187038
 20
0.3751159526870427
 10
0.0010765827187038
 20
0.3751159526870427
  0
LWPOLYLINE
  5
D6
330
A
100
AcDbEntity
  8
DEFPOINTS
  6
CONTINUOUS
 62
     3
 48
0.125
100
AcDbPolyline
 90
        2
 70
   128
 43
0.0
 10
0.0010765827187038
 20
0.3751159526870427
 10
0.0010765827187038
 20
0.3751159526870427
  0
LWPOLYLINE
  5
DA
330
A
100
AcDbEntity
  8
DEFPOINTS
  6
CONTINUOUS
 62
     3
 48
0.125
100
AcDbPolyline
 90
        2
 70
   128
 43
0.0
 10
0.0010765827187038
 20
0.1634314888152328
 10
0.0010765827187038
 20
0.1634314888152328
  0
LWPOLYLINE
  5
DE
330
A
100
AcDbEntity
  8
DEFPOINTS
  6
CONTINUOUS
 62
     3
 48
0.125
100
AcDbPolyline
 90
        2
 70
   128
 43
0.0
 10
0.0010765827187038
 20
0.1634314888152328
 10
0.0010765827187038
 20
0.1634314888152328
  0
LWPOLYLINE
  5
E2
330
A
100
AcDbEntity
  8
DEFPOINTS
  6
CONTINUOUS
 62
     3
 48
0.125
100
AcDbPolyline
 90
        2
 70
   128
 43
0.0
 10
-0.1239234172812988
 20
0.8751159526870424
 10
-0.1239234172812988
 20
0.8751159526870424
  0
LWPOLYLINE
  5
E6
330
A
100
AcDbEntity
  8
DEFPOINTS
  6
CONTINUOUS
 62
     3
 48
0.125
100
AcDbPolyline
 90
        2
 70
   128
 43
0.0
 10
-0.1239234172812988
 20
0.8751159526870424
 10
-0.1239234172812988
 20
0.8751159526870424
  0
LWPOLYLINE
  5
EA
330
A
100
AcDbEntity
  8
DEFPOINTS
  6
CONTINUOUS
 62
     3
 48
0.125
100
AcDbPolyline
 90
        2
 70
   128
 43
0.0
 10
0.0010765827187038
 20
0.8751159526870424
 10
0.0010765827187038
 20
0.8751159526870424
  0
LWPOLYLINE
  5
EE
330
A
100
AcDbEntity
  8
DEFPOINTS
  6
CONTINUOUS
 62
     3
 48
0.125
100
AcDbPolyline
 90
        2
 70
   128
 43
0.0
 10
0.0010765827187038
 20
0.8751159526870424
 10
0.0010765827187038
 20
0.8751159526870424
  0
LWPOLYLINE
  5
F2
330
A
100
AcDbEntity
  8
DEFPOINTS
  6
CONTINUOUS
 62
     3
 48
0.125
100
AcDbPolyline
 90
        2
 70
   128
 43
0.0
 10
0.0010765827187038
 20
0.9799286667757113
 10
0.0010765827187038
 20
0.9799286667757113
  0
LWPOLYLINE
  5
F6
330
A
100
AcDbEntity
  8
DEFPOINTS
  6
CONTINUOUS
 62
     3
 48
0.125
100
AcDbPolyline
 90
        2
 70
   128
 43
0.0
 10
0.0010765827187038
 20
0.9799286667757113
 10
0.0010765827187038
 20
0.9799286667757113
  0
TEXT
  5
107
330
A
100
AcDbEntity
  8
ADPDIM
100
AcDbText
 10
-10.71013757299476
 20
-5.398363197878227
 30
0.0
 40
0.125
  1
J U L I U S  B L U M  &  C O . ,  I N C .      ( 8 0 0 )  5 2 6 - 6 2 9 3        W W W . J U L I U S B L U M . C O M        P A R T  N o .  6 1 5 - C L
 41
1.25
  7
ARIAL_WIDE
 72
     1
 11
-4.008600652803764
 21
-5.273363197878227
 31
0.0
100
AcDbText
 73
     3
  0
ENDSEC
  0
SECTION
  2
OBJECTS
  0
DICTIONARY
  5
19
330
0
100
AcDbDictionary
  3
ACAD_GROUP
350
1A
  3
ACAD_LAYOUT
350
FF
  3
ACAD_MLINESTYLE
350
1B
  3
ACAD_PLOTSETTINGS
350
100
  3
ACAD_PLOTSTYLENAME
350
FD
  3
ACDBHEADERROUNDTRIPXREC
350
267
  3
ACDBVARIABLEDICTIONARY
350
169
  0
DICTIONARY
  5
15D
330
A
100
AcDbDictionary
280
     1
  3
ACAD_LAYOUTSELFREF
360
287
  0
DICTIONARY
  5
15F
330
B
100
AcDbDictionary
280
     1
  3
ACAD_LAYOUTSELFREF
360
288
  0
DICTIONARY
  5
1A
102
{ACAD_REACTORS
330
19
102
}
330
19
100
AcDbDictionary
  0
DICTIONARY
  5
FF
102
{ACAD_REACTORS
330
19
102
}
330
19
100
AcDbDictionary
  0
DICTIONARY
  5
1B
102
{ACAD_REACTORS
330
19
102
}
330
19
100
AcDbDictionary
  3
STANDARD
350
1C
  0
DICTIONARY
  5
100
102
{ACAD_REACTORS
330
19
102
}
330
19
100
AcDbDictionary
  0
ACDBDICTIONARYWDFLT
  5
FD
102
{ACAD_REACTORS
330
19
102
}
330
19
100
AcDbDictionary
281
     1
  3
Normal
350
FE
100
AcDbDictionaryWithDefault
340
FE
  0
DICTIONARY
  5
267
102
{ACAD_REACTORS
330
19
102
}
330
19
100
AcDbDictionary
  3
CEPSNTYPE
350
271
  3
FINGERPRINTGUID
350
272
  3
HYPERLINKBASE
350
26A
  3
INSUNITS
350
270
  3
LAYOUTDICT
350
26C
  3
LWETCUNION
350
26F
  3
PLOTSETDICT
350
26D
  3
PLOTSTYLNAMDICT
350
26E
  3
PSVPSCALE
350
274
  3
PUCSBASE
350
277
  3
PUCSORGBACK
350
27D
  3
PUCSORGBOTTOM
350
279
  3
PUCSORGFRONT
350
27C
  3
PUCSORGLEFT
350
27A
  3
PUCSORGRIGHT
350
27B
  3
PUCSORGTOP
350
278
  3
PUCSORTHOREF
350
275
  3
PUCSORTHOVIEW
350
276
  3
STYLESHEET
350
26B
  3
TSTACKALIGN
350
268
  3
TSTACKSIZE
350
269
  3
UCSBASE
350
280
  3
UCSORGBACK
350
286
  3
UCSORGBOTTOM
350
282
  3
UCSORGFRONT
350
285
  3
UCSORGLEFT
350
283
  3
UCSORGRIGHT
350
284
  3
UCSORGTOP
350
281
  3
UCSORTHOREF
350
27E
  3
UCSORTHOVIEW
350
27F
  3
VERSIONGUID
350
273
  0
DICTIONARY
  5
169
102
{ACAD_REACTORS
330
19
102
}
330
19
100
AcDbDictionary
  3
DIMASSOC
350
16A
  0
XRECORD
  5
287
102
{ACAD_REACTORS
330
15D
102
}
330
15D
100
AcDbXrecord
340
A
  0
XRECORD
  5
288
102
{ACAD_REACTORS
330
15F
102
}
330
15F
100
AcDbXrecord
340
B
  0
MLINESTYLE
  5
1C
102
{ACAD_REACTORS
330
1B
102
}
330
1B
100
AcDbMlineStyle
  2
STANDARD
 70
     0
  3

 62
     0
 51
90.00000000000019
 52
90.00000000000019
 71
     2
 49
0.5
 62
   256
  6
BYLAYER
 49
-0.5
 62
   256
  6
BYLAYER
  0
ACDBPLACEHOLDER
  5
FE
102
{ACAD_REACTORS
330
FD
102
}
330
FD
100
AcDbPlaceHolder
280
     0
  0
XRECORD
  5
271
102
{ACAD_REACTORS
330
267
102
}
330
267
100
AcDbXrecord
 90
        0
  0
XRECORD
  5
272
102
{ACAD_REACTORS
330
267
102
}
330
267
100
AcDbXrecord
  1
{B047FB50-79E8-4D6C-9224-63E13557590F}
  0
XRECORD
  5
26A
102
{ACAD_REACTORS
330
267
102
}
330
267
100
AcDbXrecord
  1

  0
XRECORD
  5
270
102
{ACAD_REACTORS
330
267
102
}
330
267
100
AcDbXrecord
 90
        0
  0
XRECORD
  5
26C
102
{ACAD_REACTORS
330
267
102
}
330
267
100
AcDbXrecord
340
FF
  0
XRECORD
  5
26F
102
{ACAD_REACTORS
330
267
102
}
330
267
100
AcDbXrecord
 90
    14877
  0
XRECORD
  5
26D
102
{ACAD_REACTORS
330
267
102
}
330
267
100
AcDbXrecord
340
100
  0
XRECORD
  5
26E
102
{ACAD_REACTORS
330
267
102
}
330
267
100
AcDbXrecord
340
FD
  0
XRECORD
  5
274
102
{ACAD_REACTORS
330
267
102
}
330
267
100
AcDbXrecord
 40
0.0
  0
XRECORD
  5
277
102
{ACAD_REACTORS
330
267
102
}
330
267
100
AcDbXrecord
340
0
  0
XRECORD
  5
27D
102
{ACAD_REACTORS
330
267
102
}
330
267
100
AcDbXrecord
 10
0.0
 20
0.0
 30
0.0
  0
XRECORD
  5
279
102
{ACAD_REACTORS
330
267
102
}
330
267
100
AcDbXrecord
 10
0.0
 20
0.0
 30
0.0
  0
XRECORD
  5
27C
102
{ACAD_REACTORS
330
267
102
}
330
267
100
AcDbXrecord
 10
0.0
 20
0.0
 30
0.0
  0
XRECORD
  5
27A
102
{ACAD_REACTORS
330
267
102
}
330
267
100
AcDbXrecord
 10
0.0
 20
0.0
 30
0.0
  0
XRECORD
  5
27B
102
{ACAD_REACTORS
330
267
102
}
330
267
100
AcDbXrecord
 10
0.0
 20
0.0
 30
0.0
  0
XRECORD
  5
278
102
{ACAD_REACTORS
330
267
102
}
330
267
100
AcDbXrecord
 10
0.0
 20
0.0
 30
0.0
  0
XRECORD
  5
275
102
{ACAD_REACTORS
330
267
102
}
330
267
100
AcDbXrecord
340
0
  0
XRECORD
  5
276
102
{ACAD_REACTORS
330
267
102
}
330
267
100
AcDbXrecord
 70
     0
  0
XRECORD
  5
26B
102
{ACAD_REACTORS
330
267
102
}
330
267
100
AcDbXrecord
  1

  0
XRECORD
  5
268
102
{ACAD_REACTORS
330
267
102
}
330
267
100
AcDbXrecord
 90
        1
  0
XRECORD
  5
269
102
{ACAD_REACTORS
330
267
102
}
330
267
100
AcDbXrecord
 90
       70
  0
XRECORD
  5
280
102
{ACAD_REACTORS
330
267
102
}
330
267
100
AcDbXrecord
340
0
  0
XRECORD
  5
286
102
{ACAD_REACTORS
330
267
102
}
330
267
100
AcDbXrecord
 10
0.0
 20
0.0
 30
0.0
  0
XRECORD
  5
282
102
{ACAD_REACTORS
330
267
102
}
330
267
100
AcDbXrecord
 10
0.0
 20
0.0
 30
0.0
  0
XRECORD
  5
285
102
{ACAD_REACTORS
330
267
102
}
330
267
100
AcDbXrecord
 10
0.0
 20
0.0
 30
0.0
  0
XRECORD
  5
283
102
{ACAD_REACTORS
330
267
102
}
330
267
100
AcDbXrecord
 10
0.0
 20
0.0
 30
0.0
  0
XRECORD
  5
284
102
{ACAD_REACTORS
330
267
102
}
330
267
100
AcDbXrecord
 10
0.0
 20
0.0
 30
0.0
  0
XRECORD
  5
281
102
{ACAD_REACTORS
330
267
102
}
330
267
100
AcDbXrecord
 10
0.0
 20
0.0
 30
0.0
  0
XRECORD
  5
27E
102
{ACAD_REACTORS
330
267
102
}
330
267
100
AcDbXrecord
340
0
  0
XRECORD
  5
27F
102
{ACAD_REACTORS
330
267
102
}
330
267
100
AcDbXrecord
 70
     0
  0
XRECORD
  5
273
102
{ACAD_REACTORS
330
267
102
}
330
267
100
AcDbXrecord
  1
{07A1DD0A-C75D-435C-B938-5D040715C916}
  0
DICTIONARYVAR
  5
16A
102
{ACAD_REACTORS
330
169
102
}
330
169
100
DictionaryVariables
280
     0
  1
1
  0
ENDSEC
  0
EOF
