  0
SECTION
  2
HEADER
  9
$ACADVER
  1
AC1014
  9
$ACADMAINTVER
 70
     9
  9
$DWGCODEPAGE
  3
ANSI_1252
  9
$INSBASE
 10
0.0
 20
0.0
 30
0.0
  9
$EXTMIN
 10
-17.49082794035656
 20
-5.237821339699951
 30
0.0
  9
$EXTMAX
 10
2.613782820216425
 20
6.423083288785087
 30
0.0
  9
$LIMMIN
 10
0.0
 20
0.0
  9
$LIMMAX
 10
0.0
 20
0.0
  9
$ORTHOMODE
 70
     1
  9
$REGENMODE
 70
     1
  9
$FILLMODE
 70
     1
  9
$QTEXTMODE
 70
     0
  9
$MIRRTEXT
 70
     1
  9
$DRAGMODE
 70
     0
  9
$LTSCALE
 40
1.0
  9
$OSMODE
 70
    37
  9
$ATTMODE
 70
     1
  9
$TEXTSIZE
 40
0.0
  9
$TRACEWID
 40
0.05
  9
$TEXTSTYLE
  7
STANDARD
  9
$CLAYER
  8
0
  9
$CELTYPE
  6
CONTINUOUS
  9
$CECOLOR
 62
   256
  9
$CELTSCALE
 40
1.0
  9
$DELOBJ
 70
     1
  9
$DISPSILH
 70
     0
  9
$DIMSCALE
 40
1.0
  9
$DIMASZ
 40
0.18
  9
$DIMEXO
 40
0.0625
  9
$DIMDLI
 40
0.38
  9
$DIMRND
 40
0.0
  9
$DIMDLE
 40
0.0
  9
$DIMEXE
 40
0.18
  9
$DIMTP
 40
0.0
  9
$DIMTM
 40
0.0
  9
$DIMTXT
 40
0.18
  9
$DIMCEN
 40
0.09
  9
$DIMTSZ
 40
0.0
  9
$DIMTOL
 70
     0
  9
$DIMLIM
 70
     0
  9
$DIMTIH
 70
     1
  9
$DIMTOH
 70
     1
  9
$DIMSE1
 70
     0
  9
$DIMSE2
 70
     0
  9
$DIMTAD
 70
     0
  9
$DIMZIN
 70
     0
  9
$DIMBLK
  1

  9
$DIMASO
 70
     1
  9
$DIMSHO
 70
     1
  9
$DIMPOST
  1

  9
$DIMAPOST
  1

  9
$DIMALT
 70
     0
  9
$DIMALTD
 70
     2
  9
$DIMALTF
 40
25.4
  9
$DIMLFAC
 40
1.0
  9
$DIMTOFL
 70
     0
  9
$DIMTVP
 40
0.0
  9
$DIMTIX
 70
     0
  9
$DIMSOXD
 70
     0
  9
$DIMSAH
 70
     0
  9
$DIMBLK1
  1

  9
$DIMBLK2
  1

  9
$DIMSTYLE
  2
STANDARD
  9
$DIMCLRD
 70
     0
  9
$DIMCLRE
 70
     0
  9
$DIMCLRT
 70
     0
  9
$DIMTFAC
 40
1.0
  9
$DIMGAP
 40
0.09
  9
$DIMJUST
 70
     0
  9
$DIMSD1
 70
     0
  9
$DIMSD2
 70
     0
  9
$DIMTOLJ
 70
     1
  9
$DIMTZIN
 70
     0
  9
$DIMALTZ
 70
     0
  9
$DIMALTTZ
 70
     0
  9
$DIMFIT
 70
     3
  9
$DIMUPT
 70
     0
  9
$DIMUNIT
 70
     2
  9
$DIMDEC
 70
     4
  9
$DIMTDEC
 70
     4
  9
$DIMALTU
 70
     2
  9
$DIMALTTD
 70
     2
  9
$DIMTXSTY
  7
STANDARD
  9
$DIMAUNIT
 70
     0
  9
$LUNITS
 70
     2
  9
$LUPREC
 70
     4
  9
$SKETCHINC
 40
0.1
  9
$FILLETRAD
 40
0.0
  9
$AUNITS
 70
     0
  9
$AUPREC
 70
     0
  9
$MENU
  1
acad
  9
$ELEVATION
 40
0.0
  9
$PELEVATION
 40
0.0
  9
$THICKNESS
 40
0.0
  9
$LIMCHECK
 70
     0
  9
$BLIPMODE
 70
     0
  9
$CHAMFERA
 40
0.0
  9
$CHAMFERB
 40
0.0
  9
$CHAMFERC
 40
0.0
  9
$CHAMFERD
 40
0.0
  9
$SKPOLY
 70
     0
  9
$TDCREATE
 40
2444971.791666666
  9
$TDUPDATE
 40
2452297.074019097
  9
$TDINDWG
 40
0.0360734838
  9
$TDUSRTIMER
 40
0.0360734838
  9
$USRTIMER
 70
     1
  9
$ANGBASE
 50
0.0
  9
$ANGDIR
 70
     0
  9
$PDMODE
 70
     0
  9
$PDSIZE
 40
0.0
  9
$PLINEWID
 40
0.0
  9
$COORDS
 70
     2
  9
$SPLFRAME
 70
     0
  9
$SPLINETYPE
 70
     6
  9
$SPLINESEGS
 70
     8
  9
$ATTDIA
 70
     0
  9
$ATTREQ
 70
     1
  9
$HANDLING
 70
 22529
  9
$HANDSEED
  5
264
  9
$SURFTAB1
 70
     6
  9
$SURFTAB2
 70
     6
  9
$SURFTYPE
 70
     6
  9
$SURFU
 70
     6
  9
$SURFV
 70
     6
  9
$UCSNAME
  2

  9
$UCSORG
 10
0.0
 20
0.0
 30
0.0
  9
$UCSXDIR
 10
1.0
 20
0.0
 30
0.0
  9
$UCSYDIR
 10
0.0
 20
1.0
 30
0.0
  9
$PUCSNAME
  2

  9
$PUCSORG
 10
0.0
 20
0.0
 30
0.0
  9
$PUCSXDIR
 10
1.0
 20
0.0
 30
0.0
  9
$PUCSYDIR
 10
0.0
 20
1.0
 30
0.0
  9
$USERI1
 70
     0
  9
$USERI2
 70
     0
  9
$USERI3
 70
     0
  9
$USERI4
 70
     0
  9
$USERI5
 70
     0
  9
$USERR1
 40
0.0
  9
$USERR2
 40
0.0
  9
$USERR3
 40
0.0
  9
$USERR4
 40
0.0
  9
$USERR5
 40
0.0
  9
$WORLDVIEW
 70
     1
  9
$SHADEDGE
 70
     3
  9
$SHADEDIF
 70
    70
  9
$TILEMODE
 70
     1
  9
$MAXACTVP
 70
    16
  9
$PINSBASE
 10
0.0
 20
0.0
 30
0.0
  9
$PLIMCHECK
 70
     0
  9
$PEXTMIN
 10
1.000000000000000E+20
 20
1.000000000000000E+20
 30
1.000000000000000E+20
  9
$PEXTMAX
 10
-1.000000000000000E+20
 20
-1.000000000000000E+20
 30
-1.000000000000000E+20
  9
$PLIMMIN
 10
0.0
 20
0.0
  9
$PLIMMAX
 10
12.0
 20
9.0
  9
$UNITMODE
 70
     0
  9
$VISRETAIN
 70
     0
  9
$PLINEGEN
 70
     0
  9
$PSLTSCALE
 70
     0
  9
$TREEDEPTH
 70
  3020
  9
$PICKSTYLE
 70
     1
  9
$CMLSTYLE
  2
STANDARD
  9
$CMLJUST
 70
     0
  9
$CMLSCALE
 40
1.0
  9
$PROXYGRAPHICS
 70
     1
  9
$MEASUREMENT
 70
     0
  0
ENDSEC
  0
SECTION
  2
CLASSES
  0
CLASS
  1
LWPOLYLINE
  2
AcDbPolyline
  3
AutoCAD 2000
 90
        0
280
     0
281
     1
  0
CLASS
  1
IMAGE
  2
AcDbRasterImage
  3
ISM
 90
      127
280
     0
281
     1
  0
CLASS
  1
OLE2FRAME
  2
AcDbOle2Frame
  3
AutoCAD 2000
 90
        0
280
     0
281
     1
  0
CLASS
  1
HATCH
  2
AcDbHatch
  3
AutoCAD 2000
 90
        0
280
     0
281
     1
  0
CLASS
  1
DICTIONARYVAR
  2
AcDbDictionaryVar
  3
AutoCAD 2000
 90
        0
280
     0
281
     0
  0
CLASS
  1
RASTERVARIABLES
  2
AcDbRasterVariables
  3
ISM
 90
        0
280
     0
281
     0
  0
CLASS
  1
IMAGEDEF
  2
AcDbRasterImageDef
  3
ISM
 90
        0
280
     0
281
     0
  0
CLASS
  1
IMAGEDEF_REACTOR
  2
AcDbRasterImageDefReactor
  3
ISM
 90
        1
280
     0
281
     0
  0
CLASS
  1
IDBUFFER
  2
AcDbIdBuffer
  3
AutoCAD 2000
 90
        0
280
     0
281
     0
  0
CLASS
  1
SPATIAL_FILTER
  2
AcDbSpatialFilter
  3
AutoCAD 2000
 90
        0
280
     0
281
     0
  0
CLASS
  1
XRECORD
  2
AcDbXrecord
  3
AutoCAD 2000
 90
        0
280
     0
281
     0
  0
CLASS
  1
SORTENTSTABLE
  2
AcDbSortentsTable
  3
AutoCAD 2000
 90
        0
280
     0
281
     0
  0
CLASS
  1
LAYER_INDEX
  2
AcDbLayerIndex
  3
AutoCAD 2000
 90
        0
280
     0
281
     0
  0
CLASS
  1
SPATIAL_INDEX
  2
AcDbSpatialIndex
  3
AutoCAD 2000
 90
        0
280
     0
281
     0
  0
CLASS
  1
OBJECT_PTR
  2
CAseDLPNTableRecord
  3
ASE-LPNTableRecord
 90
        1
280
     0
281
     0
  0
CLASS
  1
ACDBDICTIONARYWDFLT
  2
AcDbDictionaryWithDefault
  3
AutoCAD 2000
 90
        0
280
     0
281
     0
  0
CLASS
  1
ACDBPLACEHOLDER
  2
AcDbPlaceHolder
  3
AutoCAD 2000
 90
        0
280
     0
281
     0
  0
CLASS
  1
LAYOUT
  2
AcDbLayout
  3
AutoCAD 2000
 90
        0
280
     0
281
     0
  0
CLASS
  1
LONG_TRANSACTION
  2
AcDbLongTransaction
  3
AutoCAD 2000
 90
        0
280
     0
281
     0
  0
CLASS
  1
LWPOLYLINE
  2
AcDbPolyline
  3
AutoCAD 2000
 90
        0
280
     0
281
     1
  0
CLASS
  1
HATCH
  2
AcDbHatch
  3
AutoCAD 2000
 90
        0
280
     0
281
     1
  0
CLASS
  1
XRECORD
  2
AcDbXrecord
  3
AutoCAD 2000
 90
        0
280
     0
281
     0
  0
CLASS
  1
LONG_TRANSACTION
  2
AcDbLongTransaction
  3
AutoCAD 2000
 90
        0
280
     0
281
     0
  0
CLASS
  1
LWPOLYLINE
  2
AcDbPolyline
  3
AutoCAD 2000
 90
        0
280
     0
281
     1
  0
CLASS
  1
HATCH
  2
AcDbHatch
  3
AutoCAD 2000
 90
        0
280
     0
281
     1
  0
CLASS
  1
XRECORD
  2
AcDbXrecord
  3
AutoCAD 2000
 90
        0
280
     0
281
     0
  0
CLASS
  1
LONG_TRANSACTION
  2
AcDbLongTransaction
  3
AutoCAD 2000
 90
        0
280
     0
281
     0
  0
CLASS
  1
LWPOLYLINE
  2
AcDbPolyline
  3
AutoCAD 2000
 90
        0
280
     0
281
     1
  0
CLASS
  1
HATCH
  2
AcDbHatch
  3
AutoCAD 2000
 90
        0
280
     0
281
     1
  0
CLASS
  1
XRECORD
  2
AcDbXrecord
  3
AutoCAD 2000
 90
        0
280
     0
281
     0
  0
CLASS
  1
LONG_TRANSACTION
  2
AcDbLongTransaction
  3
AutoCAD 2000
 90
        0
280
     0
281
     0
  0
CLASS
  1
LWPOLYLINE
  2
AcDbPolyline
  3
AutoCAD 2000
 90
        0
280
     0
281
     1
  0
CLASS
  1
HATCH
  2
AcDbHatch
  3
AutoCAD 2000
 90
        0
280
     0
281
     1
  0
CLASS
  1
XRECORD
  2
AcDbXrecord
  3
AutoCAD 2000
 90
        0
280
     0
281
     0
  0
CLASS
  1
LONG_TRANSACTION
  2
AcDbLongTransaction
  3
AutoCAD 2000
 90
        0
280
     0
281
     0
  0
CLASS
  1
LWPOLYLINE
  2
AcDbPolyline
  3
AutoCAD 2000
 90
        0
280
     0
281
     1
  0
CLASS
  1
HATCH
  2
AcDbHatch
  3
AutoCAD 2000
 90
        0
280
     0
281
     1
  0
CLASS
  1
XRECORD
  2
AcDbXrecord
  3
AutoCAD 2000
 90
        0
280
     0
281
     0
  0
ENDSEC
  0
SECTION
  2
TABLES
  0
TABLE
  2
VPORT
  5
7
330
0
100
AcDbSymbolTable
 70
     3
  0
VPORT
  5
2D
330
7
100
AcDbSymbolTableRecord
100
AcDbViewportTableRecord
  2
DCADVPORT
 70
     0
 10
-12.60070148698379
 20
-4.193103835498624
 11
-2.020883040158465
 21
6.423083288785086
 12
6.209999999999999
 22
9.019999999999999
 13
0.0
 23
0.0
 14
1.0
 24
1.0
 15
0.0
 25
0.0
 16
0.0
 26
0.0
 36
1.0
 17
0.0
 27
0.0
 37
0.0
 40
18.04
 41
0.688564
 42
50.0
 43
1.0
 44
1.0
 50
0.0
 51
0.0
 71
     0
 72
   100
 73
     1
 74
     1
 75
     0
 76
     0
 77
     0
 78
     0
  0
VPORT
  5
241
330
7
100
AcDbSymbolTableRecord
100
AcDbViewportTableRecord
  2
*ACTIVE
 70
     0
 10
0.0
 20
0.0
 11
1.0
 21
1.0
 12
-7.42232392322338
 22
0.592891061764564
 13
0.0
 23
0.0
 14
1.0
 24
1.0
 15
0.0
 25
0.0
 16
0.0
 26
0.0
 36
1.0
 17
0.0
 27
0.0
 37
0.0
 40
12.88453865686154
 41
1.570528967254408
 42
50.0
 43
0.0
 44
0.0
 50
0.0
 51
0.0
 71
     0
 72
   100
 73
     1
 74
     1
 75
     0
 76
     0
 77
     0
 78
     0
  0
ENDTAB
  0
TABLE
  2
LTYPE
  5
4
330
0
100
AcDbSymbolTable
 70
     2
  0
LTYPE
  5
11
330
4
100
AcDbSymbolTableRecord
100
AcDbLinetypeTableRecord
  2
BYBLOCK
 70
     0
  3

 72
    65
 73
     0
 40
0.0
  0
LTYPE
  5
12
330
4
100
AcDbSymbolTableRecord
100
AcDbLinetypeTableRecord
  2
BYLAYER
 70
     0
  3

 72
    65
 73
     0
 40
0.0
  0
LTYPE
  5
13
330
4
100
AcDbSymbolTableRecord
100
AcDbLinetypeTableRecord
  2
CONTINUOUS
 70
     0
  3
Solid line
 72
    65
 73
     0
 40
0.0
  0
LTYPE
  5
1E
330
4
100
AcDbSymbolTableRecord
100
AcDbLinetypeTableRecord
  2
CONTINUOUS
 70
     0
  3
Solid line
 72
    65
 73
     0
 40
0.0
  0
ENDTAB
  0
TABLE
  2
LAYER
  5
2
330
0
100
AcDbSymbolTable
 70
     4
  0
LAYER
  5
14
330
2
100
AcDbSymbolTableRecord
100
AcDbLayerTableRecord
  2
0
 70
     0
 62
     7
  6
CONTINUOUS
  0
LAYER
  5
2A
330
2
100
AcDbSymbolTableRecord
100
AcDbLayerTableRecord
  2
ADPDIM
 70
     0
 62
     3
  6
CONTINUOUS
  0
LAYER
  5
2B
330
2
100
AcDbSymbolTableRecord
100
AcDbLayerTableRecord
  2
ADP1DETAIL
 70
     0
 62
   250
  6
CONTINUOUS
  0
LAYER
  5
2C
330
2
100
AcDbSymbolTableRecord
100
AcDbLayerTableRecord
  2
DEFPOINTS
 70
     0
 62
   250
  6
CONTINUOUS
  0
ENDTAB
  0
TABLE
  2
STYLE
  5
3
330
0
100
AcDbSymbolTable
 70
     2
  0
STYLE
  5
17
330
3
100
AcDbSymbolTableRecord
100
AcDbTextStyleTableRecord
  2
STANDARD
 70
     0
 40
0.0
 41
1.0
 50
0.0
 71
     0
 42
0.0
  3
txt
  4

  0
STYLE
  5
E1
330
3
100
AcDbSymbolTableRecord
100
AcDbTextStyleTableRecord
  2
ARIAL_WIDE
 70
     0
 40
0.0
 41
1.25
 50
0.0
 71
     0
 42
0.2
  3
ARIAL.TTF
  4

1001
ACAD
1000
Arial
1071
       34
  0
ENDTAB
  0
TABLE
  2
VIEW
  5
5
330
0
100
AcDbSymbolTable
 70
     0
  0
ENDTAB
  0
TABLE
  2
UCS
  5
6
330
0
100
AcDbSymbolTable
 70
     0
  0
ENDTAB
  0
TABLE
  2
APPID
  5
8
330
0
100
AcDbSymbolTable
 70
     1
  0
APPID
  5
16
330
8
100
AcDbSymbolTableRecord
100
AcDbRegAppTableRecord
  2
ACAD
 70
     0
  0
ENDTAB
  0
TABLE
  2
DIMSTYLE
  5
9
330
0
100
AcDbSymbolTable
 70
     1
  0
DIMSTYLE
105
18
330
9
100
AcDbSymbolTableRecord
100
AcDbDimStyleTableRecord
  2
STANDARD
 70
     0
  3

  4

  5

  6

  7

 40
1.0
 41
0.18
 42
0.0625
 43
0.38
 44
0.18
 45
0.0
 46
0.0
 47
0.0
 48
0.0
140
0.18
141
0.09
142
0.0
143
25.4
144
1.0
145
0.0
146
1.0
147
0.09
 71
     0
 72
     0
 73
     1
 74
     1
 75
     0
 76
     0
 77
     0
 78
     0
170
     0
171
     2
172
     0
173
     0
174
     0
175
     0
176
     0
177
     0
178
     0
270
     2
271
     4
272
     4
273
     2
274
     2
340
17
275
     0
280
     0
281
     0
282
     0
283
     1
284
     0
285
     0
286
     0
287
     0
288
     0
  0
ENDTAB
  0
TABLE
  2
BLOCK_RECORD
  5
1
330
0
100
AcDbSymbolTable
 70
     0
  0
BLOCK_RECORD
  5
A
102
{ACAD_XDICTIONARY
360
138
102
}
330
1
100
AcDbSymbolTableRecord
100
AcDbBlockTableRecord
  2
*MODEL_SPACE
  0
BLOCK_RECORD
  5
B
102
{ACAD_XDICTIONARY
360
13A
102
}
330
1
100
AcDbSymbolTableRecord
100
AcDbBlockTableRecord
  2
*PAPER_SPACE
  0
ENDTAB
  0
ENDSEC
  0
SECTION
  2
BLOCKS
  0
BLOCK
  5
D
330
A
100
AcDbEntity
  8
0
100
AcDbBlockBegin
  2
*MODEL_SPACE
 70
     0
 10
0.0
 20
0.0
 30
0.0
  3
*MODEL_SPACE
  1

  0
ENDBLK
  5
E
330
A
100
AcDbEntity
  8
0
100
AcDbBlockEnd
  0
BLOCK
  5
F
330
B
100
AcDbEntity
 67
     1
  8
0
100
AcDbBlockBegin
  2
*PAPER_SPACE
 70
     0
 10
0.0
 20
0.0
 30
0.0
  3
*PAPER_SPACE
  1

  0
ENDBLK
  5
10
330
B
100
AcDbEntity
 67
     1
  8
0
100
AcDbBlockEnd
  0
ENDSEC
  0
SECTION
  2
ENTITIES
  0
ARC
  5
2E
330
A
100
AcDbEntity
  8
ADP1DETAIL
  6
CONTINUOUS
 62
     7
100
AcDbCircle
 10
8.193596707317013
 20
1.054255754613297
 30
0.0
 40
1.382000199444019
210
0.0
220
0.0
230
-1.0
100
AcDbArc
 50
200.5942177507333
 51
105.4816450854381
  0
ARC
  5
2F
330
A
100
AcDbEntity
  8
ADP1DETAIL
  6
CONTINUOUS
 62
     7
100
AcDbCircle
 10
8.880999839245109
 20
0.448744394891623
 30
0.0
 40
2.853421680586444
210
0.0
220
0.0
230
-1.0
100
AcDbArc
 50
339.3441928366236
 51
53.08343774378205
  0
ARC
  5
30
330
A
100
AcDbEntity
  8
ADP1DETAIL
  6
CONTINUOUS
 62
     7
100
AcDbCircle
 10
7.539751305903127
 20
1.219743379229852
 30
0.0
 40
4.512221928081899
210
0.0
220
0.0
230
-1.0
100
AcDbArc
 50
180.7681123030742
 51
248.8076348969319
  0
ARC
  5
31
330
A
100
AcDbEntity
  8
ADP1DETAIL
  6
CONTINUOUS
 62
     7
100
AcDbCircle
 10
8.880999839245106
 20
0.448744394891623
 30
0.0
 40
3.603421680586444
210
0.0
220
0.0
230
-1.0
100
AcDbArc
 50
339.3394653867198
 51
53.82592662079153
  0
ARC
  5
32
330
A
100
AcDbEntity
  8
ADP1DETAIL
  6
CONTINUOUS
 62
     7
100
AcDbCircle
 10
7.539751305903127
 20
1.219743379229852
 30
0.0
 40
5.262221928081897
210
0.0
220
0.0
230
-1.0
100
AcDbArc
 50
180.713805060691
 51
248.6993001962574
  0
ARC
  5
33
330
A
100
AcDbEntity
  8
ADP1DETAIL
  6
CONTINUOUS
 62
     7
100
AcDbCircle
 10
8.193596707317013
 20
1.054255754613297
 30
0.0
 40
1.507000199444019
210
0.0
220
0.0
230
-1.0
100
AcDbArc
 50
200.5942177507332
 51
88.01242521508536
  0
LWPOLYLINE
  5
34
330
A
100
AcDbEntity
  8
ADP1DETAIL
  6
CONTINUOUS
 62
     7
100
AcDbPolyline
 90
        2
 70
   128
 43
0.0
 10
-3.151162794899287
 20
4.123980021873348
 10
-3.152934343078681
 20
1.160134815093831
  0
ARC
  5
38
330
A
100
AcDbEntity
  8
ADP1DETAIL
  6
CONTINUOUS
 62
     7
100
AcDbCircle
 10
7.539751305903184
 20
1.219743379229831
 30
0.0
 40
4.387221928081899
210
0.0
220
0.0
230
-1.0
100
AcDbArc
 50
180.7784936098714
 51
248.8293447369686
  0
ARC
  5
39
330
A
100
AcDbEntity
  8
ADP1DETAIL
  6
CONTINUOUS
 62
     7
100
AcDbCircle
 10
7.557175660943436
 20
0.950755384447682
 30
0.0
 40
4.14423257389844
210
0.0
220
0.0
230
-1.0
100
AcDbArc
 50
247.2614483831228
 51
339.3060807142319
  0
ARC
  5
3A
330
A
100
AcDbEntity
  8
ADP1DETAIL
  6
CONTINUOUS
 62
     7
100
AcDbCircle
 10
8.880999839245109
 20
0.4487443948916228
 30
0.0
 40
2.728421680586444
210
0.0
220
0.0
230
-1.0
100
AcDbArc
 50
339.3441928366235
 51
52.91760627084201
  0
ARC
  5
3B
330
A
100
AcDbEntity
  8
ADP1DETAIL
  6
CONTINUOUS
 62
     7
100
AcDbCircle
 10
9.439837642902947
 20
0.7055311456130666
 30
0.0
 40
2.205884017028503
210
0.0
220
0.0
230
-1.0
100
AcDbArc
 50
60.49791372678481
 51
122.7699855549456
  0
LWPOLYLINE
  5
3C
330
A
100
AcDbEntity
  8
ADP1DETAIL
  6
CONTINUOUS
 62
     7
100
AcDbPolyline
 90
        3
 70
   128
 43
0.0
 10
-3.151161617318835
 20
4.121735357512079
 10
-2.15116297353356
 20
4.123382302444923
 10
-2.152938204708251
 20
1.153375350769771
  0
ARC
  5
41
330
A
100
AcDbEntity
  8
ADP1DETAIL
  6
CONTINUOUS
 62
     7
100
AcDbCircle
 10
7.539751305903196
 20
1.219743379229824
 30
0.0
 40
5.387221928081896
210
0.0
220
0.0
230
-1.0
100
AcDbArc
 50
180.705874784843
 51
248.6842119769713
  0
ARC
  5
42
330
A
100
AcDbEntity
  8
ADP1DETAIL
  6
CONTINUOUS
 62
     7
100
AcDbCircle
 10
7.557175660943433
 20
0.9507553844476809
 30
0.0
 40
5.144232573898438
210
0.0
220
0.0
230
-1.0
100
AcDbArc
 50
247.4142613982212
 51
339.3096960859768
  0
ARC
  5
43
330
A
100
AcDbEntity
  8
ADP1DETAIL
  6
CONTINUOUS
 62
     7
100
AcDbCircle
 10
8.880999839245106
 20
0.448744394891623
 30
0.0
 40
3.728421680586443
210
0.0
220
0.0
230
-1.0
100
AcDbArc
 50
339.3389590374667
 51
53.91939341517105
  0
ARC
  5
44
330
A
100
AcDbEntity
  8
ADP1DETAIL
  6
CONTINUOUS
 62
     7
100
AcDbCircle
 10
9.439837642902942
 20
0.7055311456130485
 30
0.0
 40
3.205884017028506
210
0.0
220
0.0
230
-1.0
100
AcDbArc
 50
59.29639402046113
 51
135.6022055461224
  0
ARC
  5
45
330
A
100
AcDbEntity
  8
ADP1DETAIL
  6
CONTINUOUS
 62
     7
100
AcDbCircle
 10
8.937520909090826
 20
1.420968817246873
 30
0.0
 40
2.351864237906062
210
0.0
220
0.0
230
-1.0
100
AcDbArc
 50
139.4967949460293
 51
202.1092340045839
  0
ARC
  5
46
330
A
100
AcDbEntity
  8
ADP1DETAIL
  6
CONTINUOUS
 62
     7
100
AcDbCircle
 10
9.439837642902974
 20
0.7055311456130813
 30
0.0
 40
2.330884017028505
210
0.0
220
0.0
230
-1.0
100
AcDbArc
 50
60.29385550794056
 51
133.8624362401712
  0
ARC
  5
47
330
A
100
AcDbEntity
  8
ADP1DETAIL
  6
CONTINUOUS
 62
     7
100
AcDbCircle
 10
9.439837642902976
 20
0.7055311456130813
 30
0.0
 40
3.080884017028506
210
0.0
220
0.0
230
-1.0
100
AcDbArc
 50
59.40540389594155
 51
135.5228724435483
  0
ARC
  5
48
330
A
100
AcDbEntity
  8
ADP1DETAIL
  6
CONTINUOUS
 62
     7
100
AcDbCircle
 10
8.937520909090812
 20
1.420968817246905
 30
0.0
 40
2.22686423790606
210
0.0
220
0.0
230
-1.0
100
AcDbArc
 50
139.605741388401
 51
202.1092340045847
  0
LWPOLYLINE
  5
49
330
A
100
AcDbEntity
  8
ADP1DETAIL
  6
CONTINUOUS
 62
     7
100
AcDbPolyline
 90
        2
 70
   128
 43
0.0
 10
-3.020883040158465
 20
5.381416622118419
 10
-3.020883040158465
 20
5.75641662211842
  0
LWPOLYLINE
  5
4D
330
A
100
AcDbEntity
  8
ADP1DETAIL
  6
CONTINUOUS
 62
     7
100
AcDbPolyline
 90
        2
 70
   128
 43
0.0
 10
-2.270883040158465
 20
5.75641662211842
 10
-2.270883040158465
 20
5.381416622118419
  0
LWPOLYLINE
  5
51
330
A
100
AcDbEntity
  8
ADP1DETAIL
  6
CONTINUOUS
 62
     7
100
AcDbPolyline
 90
        2
 70
   128
 43
0.0
 10
-2.145883040158465
 20
5.75641662211842
 10
-2.145883040158465
 20
5.256416622118419
  0
LWPOLYLINE
  5
55
330
A
100
AcDbEntity
  8
ADP1DETAIL
  6
CONTINUOUS
 62
     7
100
AcDbPolyline
 90
        2
 70
   128
 43
0.0
 10
-3.145883040158465
 20
5.256416622118419
 10
-3.145883040158465
 20
5.75641662211842
  0
LWPOLYLINE
  5
59
330
A
100
AcDbEntity
  8
ADP1DETAIL
  6
CONTINUOUS
 62
     7
100
AcDbPolyline
 90
        2
 70
   128
 43
0.0
 10
-2.145883040158465
 20
5.256416622118419
 10
-3.145883040158465
 20
5.256416622118419
  0
LWPOLYLINE
  5
5D
330
A
100
AcDbEntity
  8
ADP1DETAIL
  6
CONTINUOUS
 62
     7
100
AcDbPolyline
 90
        2
 70
   128
 43
0.0
 10
-2.270883040158465
 20
5.381416622118419
 10
-3.020883040158465
 20
5.381416622118419
  0
LWPOLYLINE
  5
61
330
A
100
AcDbEntity
  8
ADP1DETAIL
  6
CONTINUOUS
 62
     7
100
AcDbPolyline
 90
        2
 70
   128
 43
0.0
 10
-3.026162817228572
 20
4.123905306944795
 10
-3.027934847263434
 20
1.159253943696676
  0
LWPOLYLINE
  5
65
330
A
100
AcDbEntity
  8
ADP1DETAIL
  6
CONTINUOUS
 62
     7
100
AcDbPolyline
 90
        2
 70
   128
 43
0.0
 10
-2.270883040158465
 20
5.75641662211842
 10
-2.145883040158465
 20
5.75641662211842
  0
LWPOLYLINE
  5
69
330
A
100
AcDbEntity
  8
ADP1DETAIL
  6
CONTINUOUS
 62
     7
100
AcDbPolyline
 90
        2
 70
   128
 43
0.0
 10
-2.276163118914555
 20
4.12317643380968
 10
-2.277937741895058
 20
1.154187006490985
  0
LWPOLYLINE
  5
6D
330
A
100
AcDbEntity
  8
ADP1DETAIL
  6
CONTINUOUS
 62
     7
100
AcDbPolyline
 90
        2
 70
   128
 43
0.0
 10
-3.145883040158465
 20
5.75641662211842
 10
-3.020883040158465
 20
5.75641662211842
  0
ARC
  5
71
330
A
100
AcDbEntity
  8
ADP1DETAIL
  6
CONTINUOUS
 62
     7
100
AcDbCircle
 10
7.557152791519355
 20
0.9508084501888696
 30
0.0
 40
4.269272692507091
210
0.0
220
0.0
230
-1.0
100
AcDbArc
 50
247.2849706179561
 51
339.3066388355815
  0
ARC
  5
72
330
A
100
AcDbEntity
  8
ADP1DETAIL
  6
CONTINUOUS
 62
     7
100
AcDbCircle
 10
7.557175660943435
 20
0.9507553844476817
 30
0.0
 40
5.01923257389844
210
0.0
220
0.0
230
-1.0
100
AcDbArc
 50
247.3984516103302
 51
339.3093308350912
  0
LWPOLYLINE
  5
73
330
A
100
AcDbEntity
  8
ADPDIM
  6
CONTINUOUS
 62
     3
 48
0.125
100
AcDbPolyline
 90
        2
 70
   128
 43
0.0
 10
-3.208383040158465
 20
5.256416622118419
 10
-3.547581197367061
 20
5.256416622118419
  0
LWPOLYLINE
  5
77
330
A
100
AcDbEntity
  8
ADPDIM
  6
CONTINUOUS
 62
     3
 48
0.125
100
AcDbPolyline
 90
        2
 70
   128
 43
0.0
 10
-3.208383040158465
 20
5.75641662211842
 10
-3.547581197367061
 20
5.75641662211842
  0
LWPOLYLINE
  5
7B
330
A
100
AcDbEntity
  8
ADPDIM
  6
CONTINUOUS
 62
     3
 48
0.125
100
AcDbPolyline
 90
        2
 70
   128
 43
0.0
 10
-3.367581197367061
 20
5.256416622118419
 10
-3.367581197367061
 20
5.006416622118419
  0
LWPOLYLINE
  5
7F
330
A
100
AcDbEntity
  8
ADPDIM
  6
CONTINUOUS
 62
     3
 48
0.125
100
AcDbPolyline
 90
        2
 70
   128
 43
0.0
 10
-3.367581197367061
 20
5.75641662211842
 10
-3.367581197367061
 20
6.00641662211842
  0
LWPOLYLINE
  5
83
330
A
100
AcDbEntity
  8
ADPDIM
  6
CONTINUOUS
 62
     3
 48
0.125
100
AcDbPolyline
 90
        2
 70
   128
 43
0.0
 10
-3.242581197367061
 20
5.131416622118419
 10
-3.492581197367061
 20
5.381416622118419
  0
LWPOLYLINE
  5
87
330
A
100
AcDbEntity
  8
ADPDIM
  6
CONTINUOUS
 62
     3
 48
0.125
100
AcDbPolyline
 90
        2
 70
   128
 43
0.0
 10
-3.242581197367061
 20
5.63141662211842
 10
-3.492581197367061
 20
5.88141662211842
  0
TEXT
  5
8B
330
A
100
AcDbEntity
  8
ADPDIM
 62
     3
 48
0.0
100
AcDbText
 10
-3.305081197367061
 20
6.13141662211842
 30
0.0
 40
0.125
  1
1/2
 50
90.0
 72
     5
 11
-3.305081197367061
 21
6.423083288785086
 31
0.0
100
AcDbText
  0
LWPOLYLINE
  5
8C
330
A
100
AcDbEntity
  8
ADPDIM
  6
CONTINUOUS
 62
     3
 48
0.125
100
AcDbPolyline
 90
        2
 70
   128
 43
0.0
 10
-3.145883040158465
 20
5.193916622118419
 10
-3.145883040158465
 20
4.78785681744454
  0
LWPOLYLINE
  5
90
330
A
100
AcDbEntity
  8
ADPDIM
  6
CONTINUOUS
 62
     3
 48
0.125
100
AcDbPolyline
 90
        2
 70
   128
 43
0.0
 10
-2.145883040158465
 20
5.193916622118419
 10
-2.145883040158465
 20
4.78785681744454
  0
LWPOLYLINE
  5
94
330
A
100
AcDbEntity
  8
ADPDIM
  6
CONTINUOUS
 62
     3
 48
0.125
100
AcDbPolyline
 90
        2
 70
   128
 43
0.0
 10
-3.145883040158465
 20
4.967856817444539
 10
-2.791716373491799
 20
4.967856817444539
  0
LWPOLYLINE
  5
98
330
A
100
AcDbEntity
  8
ADPDIM
  6
CONTINUOUS
 62
     3
 48
0.125
100
AcDbPolyline
 90
        2
 70
   128
 43
0.0
 10
-2.145883040158465
 20
4.967856817444539
 10
-2.500049706825132
 20
4.967856817444539
  0
LWPOLYLINE
  5
9C
330
A
100
AcDbEntity
  8
ADPDIM
  6
CONTINUOUS
 62
     3
 48
0.125
100
AcDbPolyline
 90
        2
 70
   128
 43
0.0
 10
-3.270883040158465
 20
4.842856817444539
 10
-3.020883040158465
 20
5.092856817444539
  0
LWPOLYLINE
  5
A0
330
A
100
AcDbEntity
  8
ADPDIM
  6
CONTINUOUS
 62
     3
 48
0.125
100
AcDbPolyline
 90
        2
 70
   128
 43
0.0
 10
-2.270883040158465
 20
4.842856817444539
 10
-2.020883040158465
 20
5.092856817444539
  0
TEXT
  5
A4
330
A
100
AcDbEntity
  8
ADPDIM
 62
     3
 48
0.0
100
AcDbText
 10
-2.666716373491799
 20
4.905356817444539
 30
0.0
 40
0.125
  1
1
 72
     5
 11
-2.625049706825132
 21
4.905356817444539
 31
0.0
100
AcDbText
  0
LWPOLYLINE
  5
A5
330
A
100
AcDbEntity
  8
DEFPOINTS
  6
CONTINUOUS
 62
     3
 48
0.125
100
AcDbPolyline
 90
        2
 70
   128
 43
0.0
 10
-3.145883040158464
 20
5.256416622118417
 10
-3.145883040158464
 20
5.256416622118417
  0
LWPOLYLINE
  5
A9
330
A
100
AcDbEntity
  8
DEFPOINTS
  6
CONTINUOUS
 62
     3
 48
0.125
100
AcDbPolyline
 90
        2
 70
   128
 43
0.0
 10
-3.145883040158464
 20
5.256416622118417
 10
-3.145883040158464
 20
5.256416622118417
  0
LWPOLYLINE
  5
AD
330
A
100
AcDbEntity
  8
DEFPOINTS
  6
CONTINUOUS
 62
     3
 48
0.125
100
AcDbPolyline
 90
        2
 70
   128
 43
0.0
 10
-3.145883040158464
 20
5.756416622118418
 10
-3.145883040158464
 20
5.756416622118418
  0
LWPOLYLINE
  5
B1
330
A
100
AcDbEntity
  8
DEFPOINTS
  6
CONTINUOUS
 62
     3
 48
0.125
100
AcDbPolyline
 90
        2
 70
   128
 43
0.0
 10
-3.145883040158464
 20
5.756416622118418
 10
-3.145883040158464
 20
5.756416622118418
  0
LWPOLYLINE
  5
B5
330
A
100
AcDbEntity
  8
DEFPOINTS
  6
CONTINUOUS
 62
     3
 48
0.125
100
AcDbPolyline
 90
        2
 70
   128
 43
0.0
 10
-3.367581197367059
 20
5.756416622118418
 10
-3.367581197367059
 20
5.756416622118418
  0
LWPOLYLINE
  5
B9
330
A
100
AcDbEntity
  8
DEFPOINTS
  6
CONTINUOUS
 62
     3
 48
0.125
100
AcDbPolyline
 90
        2
 70
   128
 43
0.0
 10
-3.367581197367059
 20
5.756416622118418
 10
-3.367581197367059
 20
5.756416622118418
  0
LWPOLYLINE
  5
BD
330
A
100
AcDbEntity
  8
DEFPOINTS
  6
CONTINUOUS
 62
     3
 48
0.125
100
AcDbPolyline
 90
        2
 70
   128
 43
0.0
 10
-3.145883040158464
 20
5.256416622118417
 10
-3.145883040158464
 20
5.256416622118417
  0
LWPOLYLINE
  5
C1
330
A
100
AcDbEntity
  8
DEFPOINTS
  6
CONTINUOUS
 62
     3
 48
0.125
100
AcDbPolyline
 90
        2
 70
   128
 43
0.0
 10
-3.145883040158464
 20
5.256416622118417
 10
-3.145883040158464
 20
5.256416622118417
  0
LWPOLYLINE
  5
C5
330
A
100
AcDbEntity
  8
DEFPOINTS
  6
CONTINUOUS
 62
     3
 48
0.125
100
AcDbPolyline
 90
        2
 70
   128
 43
0.0
 10
-2.145883040158468
 20
5.256416622118417
 10
-2.145883040158468
 20
5.256416622118417
  0
LWPOLYLINE
  5
C9
330
A
100
AcDbEntity
  8
DEFPOINTS
  6
CONTINUOUS
 62
     3
 48
0.125
100
AcDbPolyline
 90
        2
 70
   128
 43
0.0
 10
-2.145883040158468
 20
5.256416622118417
 10
-2.145883040158468
 20
5.256416622118417
  0
LWPOLYLINE
  5
CD
330
A
100
AcDbEntity
  8
DEFPOINTS
  6
CONTINUOUS
 62
     3
 48
0.125
100
AcDbPolyline
 90
        2
 70
   128
 43
0.0
 10
-2.145883040158468
 20
4.96785681744454
 10
-2.145883040158468
 20
4.96785681744454
  0
LWPOLYLINE
  5
D1
330
A
100
AcDbEntity
  8
DEFPOINTS
  6
CONTINUOUS
 62
     3
 48
0.125
100
AcDbPolyline
 90
        2
 70
   128
 43
0.0
 10
-2.145883040158468
 20
4.96785681744454
 10
-2.145883040158468
 20
4.96785681744454
  0
TEXT
  5
E2
330
A
100
AcDbEntity
  8
ADPDIM
100
AcDbText
 10
-17.49082794035656
 20
-5.055066350184322
 30
0.0
 40
0.1875
  1
J U L I U S  B L U M  &  C O . ,  I N C .      ( 8 0 0 )  5 2 6 - 6 2 9 3        W W W . J U L I U S B L U M . C O M        P A R T  N o .  6 0 0 - C L
 41
1.25
  7
ARIAL_WIDE
 72
     1
 11
-7.438522560070069
 21
-4.867566350184322
 31
0.0
100
AcDbText
 73
     3
  0
ENDSEC
  0
SECTION
  2
OBJECTS
  0
DICTIONARY
  5
19
330
0
100
AcDbDictionary
  3
ACAD_GROUP
350
1A
  3
ACAD_LAYOUT
350
DA
  3
ACAD_MLINESTYLE
350
1B
  3
ACAD_PLOTSETTINGS
350
DB
  3
ACAD_PLOTSTYLENAME
350
D8
  3
ACDBHEADERROUNDTRIPXREC
350
242
  3
ACDBVARIABLEDICTIONARY
350
144
  0
DICTIONARY
  5
138
330
A
100
AcDbDictionary
280
     1
  3
ACAD_LAYOUTSELFREF
360
262
  0
DICTIONARY
  5
13A
330
B
100
AcDbDictionary
280
     1
  3
ACAD_LAYOUTSELFREF
360
263
  0
DICTIONARY
  5
1A
102
{ACAD_REACTORS
330
19
102
}
330
19
100
AcDbDictionary
  0
DICTIONARY
  5
DA
102
{ACAD_REACTORS
330
19
102
}
330
19
100
AcDbDictionary
  0
DICTIONARY
  5
1B
102
{ACAD_REACTORS
330
19
102
}
330
19
100
AcDbDictionary
  3
STANDARD
350
1C
  0
DICTIONARY
  5
DB
102
{ACAD_REACTORS
330
19
102
}
330
19
100
AcDbDictionary
  0
ACDBDICTIONARYWDFLT
  5
D8
102
{ACAD_REACTORS
330
19
102
}
330
19
100
AcDbDictionary
281
     1
  3
Normal
350
D9
100
AcDbDictionaryWithDefault
340
D9
  0
DICTIONARY
  5
242
102
{ACAD_REACTORS
330
19
102
}
330
19
100
AcDbDictionary
  3
CEPSNTYPE
350
24C
  3
FINGERPRINTGUID
350
24D
  3
HYPERLINKBASE
350
245
  3
INSUNITS
350
24B
  3
LAYOUTDICT
350
247
  3
LWETCUNION
350
24A
  3
PLOTSETDICT
350
248
  3
PLOTSTYLNAMDICT
350
249
  3
PSVPSCALE
350
24F
  3
PUCSBASE
350
252
  3
PUCSORGBACK
350
258
  3
PUCSORGBOTTOM
350
254
  3
PUCSORGFRONT
350
257
  3
PUCSORGLEFT
350
255
  3
PUCSORGRIGHT
350
256
  3
PUCSORGTOP
350
253
  3
PUCSORTHOREF
350
250
  3
PUCSORTHOVIEW
350
251
  3
STYLESHEET
350
246
  3
TSTACKALIGN
350
243
  3
TSTACKSIZE
350
244
  3
UCSBASE
350
25B
  3
UCSORGBACK
350
261
  3
UCSORGBOTTOM
350
25D
  3
UCSORGFRONT
350
260
  3
UCSORGLEFT
350
25E
  3
UCSORGRIGHT
350
25F
  3
UCSORGTOP
350
25C
  3
UCSORTHOREF
350
259
  3
UCSORTHOVIEW
350
25A
  3
VERSIONGUID
350
24E
  0
DICTIONARY
  5
144
102
{ACAD_REACTORS
330
19
102
}
330
19
100
AcDbDictionary
  3
DIMASSOC
350
145
  0
XRECORD
  5
262
102
{ACAD_REACTORS
330
138
102
}
330
138
100
AcDbXrecord
340
A
  0
XRECORD
  5
263
102
{ACAD_REACTORS
330
13A
102
}
330
13A
100
AcDbXrecord
340
B
  0
MLINESTYLE
  5
1C
102
{ACAD_REACTORS
330
1B
102
}
330
1B
100
AcDbMlineStyle
  2
STANDARD
 70
     0
  3

 62
     0
 51
90.00000000000019
 52
90.00000000000019
 71
     2
 49
0.5
 62
   256
  6
BYLAYER
 49
-0.5
 62
   256
  6
BYLAYER
  0
ACDBPLACEHOLDER
  5
D9
102
{ACAD_REACTORS
330
D8
102
}
330
D8
100
AcDbPlaceHolder
280
     0
  0
XRECORD
  5
24C
102
{ACAD_REACTORS
330
242
102
}
330
242
100
AcDbXrecord
 90
        0
  0
XRECORD
  5
24D
102
{ACAD_REACTORS
330
242
102
}
330
242
100
AcDbXrecord
  1
{AA272F17-DFD9-4D1D-B3FD-1C30433304D9}
  0
XRECORD
  5
245
102
{ACAD_REACTORS
330
242
102
}
330
242
100
AcDbXrecord
  1

  0
XRECORD
  5
24B
102
{ACAD_REACTORS
330
242
102
}
330
242
100
AcDbXrecord
 90
        0
  0
XRECORD
  5
247
102
{ACAD_REACTORS
330
242
102
}
330
242
100
AcDbXrecord
340
DA
  0
XRECORD
  5
24A
102
{ACAD_REACTORS
330
242
102
}
330
242
100
AcDbXrecord
 90
    14877
  0
XRECORD
  5
248
102
{ACAD_REACTORS
330
242
102
}
330
242
100
AcDbXrecord
340
DB
  0
XRECORD
  5
249
102
{ACAD_REACTORS
330
242
102
}
330
242
100
AcDbXrecord
340
D8
  0
XRECORD
  5
24F
102
{ACAD_REACTORS
330
242
102
}
330
242
100
AcDbXrecord
 40
0.0
  0
XRECORD
  5
252
102
{ACAD_REACTORS
330
242
102
}
330
242
100
AcDbXrecord
340
0
  0
XRECORD
  5
258
102
{ACAD_REACTORS
330
242
102
}
330
242
100
AcDbXrecord
 10
0.0
 20
0.0
 30
0.0
  0
XRECORD
  5
254
102
{ACAD_REACTORS
330
242
102
}
330
242
100
AcDbXrecord
 10
0.0
 20
0.0
 30
0.0
  0
XRECORD
  5
257
102
{ACAD_REACTORS
330
242
102
}
330
242
100
AcDbXrecord
 10
0.0
 20
0.0
 30
0.0
  0
XRECORD
  5
255
102
{ACAD_REACTORS
330
242
102
}
330
242
100
AcDbXrecord
 10
0.0
 20
0.0
 30
0.0
  0
XRECORD
  5
256
102
{ACAD_REACTORS
330
242
102
}
330
242
100
AcDbXrecord
 10
0.0
 20
0.0
 30
0.0
  0
XRECORD
  5
253
102
{ACAD_REACTORS
330
242
102
}
330
242
100
AcDbXrecord
 10
0.0
 20
0.0
 30
0.0
  0
XRECORD
  5
250
102
{ACAD_REACTORS
330
242
102
}
330
242
100
AcDbXrecord
340
0
  0
XRECORD
  5
251
102
{ACAD_REACTORS
330
242
102
}
330
242
100
AcDbXrecord
 70
     0
  0
XRECORD
  5
246
102
{ACAD_REACTORS
330
242
102
}
330
242
100
AcDbXrecord
  1

  0
XRECORD
  5
243
102
{ACAD_REACTORS
330
242
102
}
330
242
100
AcDbXrecord
 90
        1
  0
XRECORD
  5
244
102
{ACAD_REACTORS
330
242
102
}
330
242
100
AcDbXrecord
 90
       70
  0
XRECORD
  5
25B
102
{ACAD_REACTORS
330
242
102
}
330
242
100
AcDbXrecord
340
0
  0
XRECORD
  5
261
102
{ACAD_REACTORS
330
242
102
}
330
242
100
AcDbXrecord
 10
0.0
 20
0.0
 30
0.0
  0
XRECORD
  5
25D
102
{ACAD_REACTORS
330
242
102
}
330
242
100
AcDbXrecord
 10
0.0
 20
0.0
 30
0.0
  0
XRECORD
  5
260
102
{ACAD_REACTORS
330
242
102
}
330
242
100
AcDbXrecord
 10
0.0
 20
0.0
 30
0.0
  0
XRECORD
  5
25E
102
{ACAD_REACTORS
330
242
102
}
330
242
100
AcDbXrecord
 10
0.0
 20
0.0
 30
0.0
  0
XRECORD
  5
25F
102
{ACAD_REACTORS
330
242
102
}
330
242
100
AcDbXrecord
 10
0.0
 20
0.0
 30
0.0
  0
XRECORD
  5
25C
102
{ACAD_REACTORS
330
242
102
}
330
242
100
AcDbXrecord
 10
0.0
 20
0.0
 30
0.0
  0
XRECORD
  5
259
102
{ACAD_REACTORS
330
242
102
}
330
242
100
AcDbXrecord
340
0
  0
XRECORD
  5
25A
102
{ACAD_REACTORS
330
242
102
}
330
242
100
AcDbXrecord
 70
     0
  0
XRECORD
  5
24E
102
{ACAD_REACTORS
330
242
102
}
330
242
100
AcDbXrecord
  1
{C6D51C26-B9B9-4CBE-B6E0-AB55D8F53737}
  0
DICTIONARYVAR
  5
145
102
{ACAD_REACTORS
330
144
102
}
330
144
100
DictionaryVariables
280
     0
  1
1
  0
ENDSEC
  0
EOF
