  0
SECTION
  2
HEADER
  9
$ACADVER
  1
AC1014
  9
$ACADMAINTVER
 70
     9
  9
$DWGCODEPAGE
  3
ANSI_1252
  9
$INSBASE
 10
0.0
 20
0.0
 30
0.0
  9
$EXTMIN
 10
29.26047118196935
 20
0.8740436077355965
 30
0.0
  9
$EXTMAX
 10
42.66354502235135
 20
7.78589243504379
 30
0.0
  9
$LIMMIN
 10
0.0
 20
0.0
  9
$LIMMAX
 10
0.0
 20
0.0
  9
$ORTHOMODE
 70
     1
  9
$REGENMODE
 70
     1
  9
$FILLMODE
 70
     1
  9
$QTEXTMODE
 70
     0
  9
$MIRRTEXT
 70
     1
  9
$DRAGMODE
 70
     0
  9
$LTSCALE
 40
1.0
  9
$OSMODE
 70
    37
  9
$ATTMODE
 70
     1
  9
$TEXTSIZE
 40
0.0
  9
$TRACEWID
 40
0.05
  9
$TEXTSTYLE
  7
STANDARD
  9
$CLAYER
  8
0
  9
$CELTYPE
  6
CONTINUOUS
  9
$CECOLOR
 62
   256
  9
$CELTSCALE
 40
1.0
  9
$DELOBJ
 70
     1
  9
$DISPSILH
 70
     0
  9
$DIMSCALE
 40
1.0
  9
$DIMASZ
 40
0.18
  9
$DIMEXO
 40
0.0625
  9
$DIMDLI
 40
0.38
  9
$DIMRND
 40
0.0
  9
$DIMDLE
 40
0.0
  9
$DIMEXE
 40
0.18
  9
$DIMTP
 40
0.0
  9
$DIMTM
 40
0.0
  9
$DIMTXT
 40
0.18
  9
$DIMCEN
 40
0.09
  9
$DIMTSZ
 40
0.0
  9
$DIMTOL
 70
     0
  9
$DIMLIM
 70
     0
  9
$DIMTIH
 70
     1
  9
$DIMTOH
 70
     1
  9
$DIMSE1
 70
     0
  9
$DIMSE2
 70
     0
  9
$DIMTAD
 70
     0
  9
$DIMZIN
 70
     0
  9
$DIMBLK
  1

  9
$DIMASO
 70
     1
  9
$DIMSHO
 70
     1
  9
$DIMPOST
  1

  9
$DIMAPOST
  1

  9
$DIMALT
 70
     0
  9
$DIMALTD
 70
     2
  9
$DIMALTF
 40
25.4
  9
$DIMLFAC
 40
1.0
  9
$DIMTOFL
 70
     0
  9
$DIMTVP
 40
0.0
  9
$DIMTIX
 70
     0
  9
$DIMSOXD
 70
     0
  9
$DIMSAH
 70
     0
  9
$DIMBLK1
  1

  9
$DIMBLK2
  1

  9
$DIMSTYLE
  2
STANDARD
  9
$DIMCLRD
 70
     0
  9
$DIMCLRE
 70
     0
  9
$DIMCLRT
 70
     0
  9
$DIMTFAC
 40
1.0
  9
$DIMGAP
 40
0.09
  9
$DIMJUST
 70
     0
  9
$DIMSD1
 70
     0
  9
$DIMSD2
 70
     0
  9
$DIMTOLJ
 70
     1
  9
$DIMTZIN
 70
     0
  9
$DIMALTZ
 70
     0
  9
$DIMALTTZ
 70
     0
  9
$DIMFIT
 70
     3
  9
$DIMUPT
 70
     0
  9
$DIMUNIT
 70
     2
  9
$DIMDEC
 70
     4
  9
$DIMTDEC
 70
     4
  9
$DIMALTU
 70
     2
  9
$DIMALTTD
 70
     2
  9
$DIMTXSTY
  7
STANDARD
  9
$DIMAUNIT
 70
     0
  9
$LUNITS
 70
     2
  9
$LUPREC
 70
     4
  9
$SKETCHINC
 40
0.1
  9
$FILLETRAD
 40
0.0
  9
$AUNITS
 70
     0
  9
$AUPREC
 70
     0
  9
$MENU
  1
acad
  9
$ELEVATION
 40
0.0
  9
$PELEVATION
 40
0.0
  9
$THICKNESS
 40
0.0
  9
$LIMCHECK
 70
     0
  9
$BLIPMODE
 70
     0
  9
$CHAMFERA
 40
0.0
  9
$CHAMFERB
 40
0.0
  9
$CHAMFERC
 40
0.0
  9
$CHAMFERD
 40
0.0
  9
$SKPOLY
 70
     0
  9
$TDCREATE
 40
2444971.791666666
  9
$TDUPDATE
 40
2452297.091124305
  9
$TDINDWG
 40
0.0480213889
  9
$TDUSRTIMER
 40
0.0480213889
  9
$USRTIMER
 70
     1
  9
$ANGBASE
 50
0.0
  9
$ANGDIR
 70
     0
  9
$PDMODE
 70
     0
  9
$PDSIZE
 40
0.0
  9
$PLINEWID
 40
0.0
  9
$COORDS
 70
     2
  9
$SPLFRAME
 70
     0
  9
$SPLINETYPE
 70
     6
  9
$SPLINESEGS
 70
     8
  9
$ATTDIA
 70
     0
  9
$ATTREQ
 70
     1
  9
$HANDLING
 70
 22529
  9
$HANDSEED
  5
320
  9
$SURFTAB1
 70
     6
  9
$SURFTAB2
 70
     6
  9
$SURFTYPE
 70
     6
  9
$SURFU
 70
     6
  9
$SURFV
 70
     6
  9
$UCSNAME
  2

  9
$UCSORG
 10
0.0
 20
0.0
 30
0.0
  9
$UCSXDIR
 10
1.0
 20
0.0
 30
0.0
  9
$UCSYDIR
 10
0.0
 20
1.0
 30
0.0
  9
$PUCSNAME
  2

  9
$PUCSORG
 10
0.0
 20
0.0
 30
0.0
  9
$PUCSXDIR
 10
1.0
 20
0.0
 30
0.0
  9
$PUCSYDIR
 10
0.0
 20
1.0
 30
0.0
  9
$USERI1
 70
     0
  9
$USERI2
 70
     0
  9
$USERI3
 70
     0
  9
$USERI4
 70
     0
  9
$USERI5
 70
     0
  9
$USERR1
 40
0.0
  9
$USERR2
 40
0.0
  9
$USERR3
 40
0.0
  9
$USERR4
 40
0.0
  9
$USERR5
 40
0.0
  9
$WORLDVIEW
 70
     1
  9
$SHADEDGE
 70
     3
  9
$SHADEDIF
 70
    70
  9
$TILEMODE
 70
     1
  9
$MAXACTVP
 70
    16
  9
$PINSBASE
 10
0.0
 20
0.0
 30
0.0
  9
$PLIMCHECK
 70
     0
  9
$PEXTMIN
 10
1.000000000000000E+20
 20
1.000000000000000E+20
 30
1.000000000000000E+20
  9
$PEXTMAX
 10
-1.000000000000000E+20
 20
-1.000000000000000E+20
 30
-1.000000000000000E+20
  9
$PLIMMIN
 10
0.0
 20
0.0
  9
$PLIMMAX
 10
12.0
 20
9.0
  9
$UNITMODE
 70
     0
  9
$VISRETAIN
 70
     0
  9
$PLINEGEN
 70
     0
  9
$PSLTSCALE
 70
     0
  9
$TREEDEPTH
 70
  3020
  9
$PICKSTYLE
 70
     1
  9
$CMLSTYLE
  2
STANDARD
  9
$CMLJUST
 70
     0
  9
$CMLSCALE
 40
1.0
  9
$PROXYGRAPHICS
 70
     1
  9
$MEASUREMENT
 70
     0
  0
ENDSEC
  0
SECTION
  2
CLASSES
  0
CLASS
  1
LWPOLYLINE
  2
AcDbPolyline
  3
AutoCAD 2000
 90
        0
280
     0
281
     1
  0
CLASS
  1
IMAGE
  2
AcDbRasterImage
  3
ISM
 90
      127
280
     0
281
     1
  0
CLASS
  1
OLE2FRAME
  2
AcDbOle2Frame
  3
AutoCAD 2000
 90
        0
280
     0
281
     1
  0
CLASS
  1
HATCH
  2
AcDbHatch
  3
AutoCAD 2000
 90
        0
280
     0
281
     1
  0
CLASS
  1
DICTIONARYVAR
  2
AcDbDictionaryVar
  3
AutoCAD 2000
 90
        0
280
     0
281
     0
  0
CLASS
  1
RASTERVARIABLES
  2
AcDbRasterVariables
  3
ISM
 90
        0
280
     0
281
     0
  0
CLASS
  1
IMAGEDEF
  2
AcDbRasterImageDef
  3
ISM
 90
        0
280
     0
281
     0
  0
CLASS
  1
IMAGEDEF_REACTOR
  2
AcDbRasterImageDefReactor
  3
ISM
 90
        1
280
     0
281
     0
  0
CLASS
  1
IDBUFFER
  2
AcDbIdBuffer
  3
AutoCAD 2000
 90
        0
280
     0
281
     0
  0
CLASS
  1
SPATIAL_FILTER
  2
AcDbSpatialFilter
  3
AutoCAD 2000
 90
        0
280
     0
281
     0
  0
CLASS
  1
XRECORD
  2
AcDbXrecord
  3
AutoCAD 2000
 90
        0
280
     0
281
     0
  0
CLASS
  1
SORTENTSTABLE
  2
AcDbSortentsTable
  3
AutoCAD 2000
 90
        0
280
     0
281
     0
  0
CLASS
  1
LAYER_INDEX
  2
AcDbLayerIndex
  3
AutoCAD 2000
 90
        0
280
     0
281
     0
  0
CLASS
  1
SPATIAL_INDEX
  2
AcDbSpatialIndex
  3
AutoCAD 2000
 90
        0
280
     0
281
     0
  0
CLASS
  1
OBJECT_PTR
  2
CAseDLPNTableRecord
  3
ASE-LPNTableRecord
 90
        1
280
     0
281
     0
  0
CLASS
  1
ACDBDICTIONARYWDFLT
  2
AcDbDictionaryWithDefault
  3
AutoCAD 2000
 90
        0
280
     0
281
     0
  0
CLASS
  1
ACDBPLACEHOLDER
  2
AcDbPlaceHolder
  3
AutoCAD 2000
 90
        0
280
     0
281
     0
  0
CLASS
  1
LAYOUT
  2
AcDbLayout
  3
AutoCAD 2000
 90
        0
280
     0
281
     0
  0
CLASS
  1
LONG_TRANSACTION
  2
AcDbLongTransaction
  3
AutoCAD 2000
 90
        0
280
     0
281
     0
  0
CLASS
  1
LWPOLYLINE
  2
AcDbPolyline
  3
AutoCAD 2000
 90
        0
280
     0
281
     1
  0
CLASS
  1
HATCH
  2
AcDbHatch
  3
AutoCAD 2000
 90
        0
280
     0
281
     1
  0
CLASS
  1
XRECORD
  2
AcDbXrecord
  3
AutoCAD 2000
 90
        0
280
     0
281
     0
  0
CLASS
  1
LONG_TRANSACTION
  2
AcDbLongTransaction
  3
AutoCAD 2000
 90
        0
280
     0
281
     0
  0
CLASS
  1
LWPOLYLINE
  2
AcDbPolyline
  3
AutoCAD 2000
 90
        0
280
     0
281
     1
  0
CLASS
  1
HATCH
  2
AcDbHatch
  3
AutoCAD 2000
 90
        0
280
     0
281
     1
  0
CLASS
  1
XRECORD
  2
AcDbXrecord
  3
AutoCAD 2000
 90
        0
280
     0
281
     0
  0
CLASS
  1
LONG_TRANSACTION
  2
AcDbLongTransaction
  3
AutoCAD 2000
 90
        0
280
     0
281
     0
  0
CLASS
  1
LWPOLYLINE
  2
AcDbPolyline
  3
AutoCAD 2000
 90
        0
280
     0
281
     1
  0
CLASS
  1
HATCH
  2
AcDbHatch
  3
AutoCAD 2000
 90
        0
280
     0
281
     1
  0
CLASS
  1
XRECORD
  2
AcDbXrecord
  3
AutoCAD 2000
 90
        0
280
     0
281
     0
  0
CLASS
  1
LONG_TRANSACTION
  2
AcDbLongTransaction
  3
AutoCAD 2000
 90
        0
280
     0
281
     0
  0
CLASS
  1
LWPOLYLINE
  2
AcDbPolyline
  3
AutoCAD 2000
 90
        0
280
     0
281
     1
  0
CLASS
  1
HATCH
  2
AcDbHatch
  3
AutoCAD 2000
 90
        0
280
     0
281
     1
  0
CLASS
  1
XRECORD
  2
AcDbXrecord
  3
AutoCAD 2000
 90
        0
280
     0
281
     0
  0
CLASS
  1
LONG_TRANSACTION
  2
AcDbLongTransaction
  3
AutoCAD 2000
 90
        0
280
     0
281
     0
  0
CLASS
  1
LWPOLYLINE
  2
AcDbPolyline
  3
AutoCAD 2000
 90
        0
280
     0
281
     1
  0
CLASS
  1
HATCH
  2
AcDbHatch
  3
AutoCAD 2000
 90
        0
280
     0
281
     1
  0
CLASS
  1
XRECORD
  2
AcDbXrecord
  3
AutoCAD 2000
 90
        0
280
     0
281
     0
  0
ENDSEC
  0
SECTION
  2
TABLES
  0
TABLE
  2
VPORT
  5
7
330
0
100
AcDbSymbolTable
 70
     3
  0
VPORT
  5
2E
330
7
100
AcDbSymbolTableRecord
100
AcDbViewportTableRecord
  2
DCADVPORT
 70
     0
 10
33.18457522523044
 20
1.748785683663186
 11
40.18087163623543
 21
7.78589243504379
 12
6.209999999999999
 22
9.019999999999999
 13
0.0
 23
0.0
 14
1.0
 24
1.0
 15
0.0
 25
0.0
 16
0.0
 26
0.0
 36
1.0
 17
0.0
 27
0.0
 37
0.0
 40
18.04
 41
0.688564
 42
50.0
 43
1.0
 44
1.0
 50
0.0
 51
0.0
 71
     0
 72
   100
 73
     1
 74
     1
 75
     0
 76
     0
 77
     0
 78
     0
  0
VPORT
  5
2FD
330
7
100
AcDbSymbolTableRecord
100
AcDbViewportTableRecord
  2
*ACTIVE
 70
     0
 10
0.0
 20
0.0
 11
1.0
 21
1.0
 12
35.97308844819357
 22
4.330112189677815
 13
0.0
 23
0.0
 14
1.0
 24
1.0
 15
0.0
 25
0.0
 16
0.0
 26
0.0
 36
1.0
 17
0.0
 27
0.0
 37
0.0
 40
8.590174377815737
 41
1.570528967254408
 42
50.0
 43
0.0
 44
0.0
 50
0.0
 51
0.0
 71
     0
 72
   100
 73
     1
 74
     1
 75
     0
 76
     0
 77
     0
 78
     0
  0
ENDTAB
  0
TABLE
  2
LTYPE
  5
4
330
0
100
AcDbSymbolTable
 70
     2
  0
LTYPE
  5
11
330
4
100
AcDbSymbolTableRecord
100
AcDbLinetypeTableRecord
  2
BYBLOCK
 70
     0
  3

 72
    65
 73
     0
 40
0.0
  0
LTYPE
  5
12
330
4
100
AcDbSymbolTableRecord
100
AcDbLinetypeTableRecord
  2
BYLAYER
 70
     0
  3

 72
    65
 73
     0
 40
0.0
  0
LTYPE
  5
13
330
4
100
AcDbSymbolTableRecord
100
AcDbLinetypeTableRecord
  2
CONTINUOUS
 70
     0
  3
Solid line
 72
    65
 73
     0
 40
0.0
  0
LTYPE
  5
1E
330
4
100
AcDbSymbolTableRecord
100
AcDbLinetypeTableRecord
  2
CONTINUOUS
 70
     0
  3
Solid line
 72
    65
 73
     0
 40
0.0
  0
ENDTAB
  0
TABLE
  2
LAYER
  5
2
330
0
100
AcDbSymbolTable
 70
     5
  0
LAYER
  5
14
330
2
100
AcDbSymbolTableRecord
100
AcDbLayerTableRecord
  2
0
 70
     0
 62
     7
  6
CONTINUOUS
  0
LAYER
  5
2A
330
2
100
AcDbSymbolTableRecord
100
AcDbLayerTableRecord
  2
DEFPOINTS
 70
     0
 62
   250
  6
CONTINUOUS
  0
LAYER
  5
2B
330
2
100
AcDbSymbolTableRecord
100
AcDbLayerTableRecord
  2
ADPDIM
 70
     0
 62
     3
  6
CONTINUOUS
  0
LAYER
  5
2C
330
2
100
AcDbSymbolTableRecord
100
AcDbLayerTableRecord
  2
ADP1DETAIL
 70
     0
 62
   250
  6
CONTINUOUS
  0
LAYER
  5
2D
330
2
100
AcDbSymbolTableRecord
100
AcDbLayerTableRecord
  2
ADP2DETAIL
 70
     0
 62
   250
  6
CONTINUOUS
  0
ENDTAB
  0
TABLE
  2
STYLE
  5
3
330
0
100
AcDbSymbolTable
 70
     2
  0
STYLE
  5
17
330
3
100
AcDbSymbolTableRecord
100
AcDbTextStyleTableRecord
  2
STANDARD
 70
     0
 40
0.0
 41
1.0
 50
0.0
 71
     0
 42
0.0
  3
txt
  4

  0
STYLE
  5
19D
330
3
100
AcDbSymbolTableRecord
100
AcDbTextStyleTableRecord
  2
ARIAL_WIDE
 70
     0
 40
0.0
 41
1.25
 50
0.0
 71
     0
 42
0.2
  3
ARIAL.TTF
  4

1001
ACAD
1000
Arial
1071
       34
  0
ENDTAB
  0
TABLE
  2
VIEW
  5
5
330
0
100
AcDbSymbolTable
 70
     0
  0
ENDTAB
  0
TABLE
  2
UCS
  5
6
330
0
100
AcDbSymbolTable
 70
     0
  0
ENDTAB
  0
TABLE
  2
APPID
  5
8
330
0
100
AcDbSymbolTable
 70
     1
  0
APPID
  5
16
330
8
100
AcDbSymbolTableRecord
100
AcDbRegAppTableRecord
  2
ACAD
 70
     0
  0
ENDTAB
  0
TABLE
  2
DIMSTYLE
  5
9
330
0
100
AcDbSymbolTable
 70
     1
  0
DIMSTYLE
105
18
330
9
100
AcDbSymbolTableRecord
100
AcDbDimStyleTableRecord
  2
STANDARD
 70
     0
  3

  4

  5

  6

  7

 40
1.0
 41
0.18
 42
0.0625
 43
0.38
 44
0.18
 45
0.0
 46
0.0
 47
0.0
 48
0.0
140
0.18
141
0.09
142
0.0
143
25.4
144
1.0
145
0.0
146
1.0
147
0.09
 71
     0
 72
     0
 73
     1
 74
     1
 75
     0
 76
     0
 77
     0
 78
     0
170
     0
171
     2
172
     0
173
     0
174
     0
175
     0
176
     0
177
     0
178
     0
270
     2
271
     4
272
     4
273
     2
274
     2
340
17
275
     0
280
     0
281
     0
282
     0
283
     1
284
     0
285
     0
286
     0
287
     0
288
     0
  0
ENDTAB
  0
TABLE
  2
BLOCK_RECORD
  5
1
330
0
100
AcDbSymbolTable
 70
     0
  0
BLOCK_RECORD
  5
A
102
{ACAD_XDICTIONARY
360
1F4
102
}
330
1
100
AcDbSymbolTableRecord
100
AcDbBlockTableRecord
  2
*MODEL_SPACE
  0
BLOCK_RECORD
  5
B
102
{ACAD_XDICTIONARY
360
1F6
102
}
330
1
100
AcDbSymbolTableRecord
100
AcDbBlockTableRecord
  2
*PAPER_SPACE
  0
ENDTAB
  0
ENDSEC
  0
SECTION
  2
BLOCKS
  0
BLOCK
  5
D
330
A
100
AcDbEntity
  8
0
100
AcDbBlockBegin
  2
*MODEL_SPACE
 70
     0
 10
0.0
 20
0.0
 30
0.0
  3
*MODEL_SPACE
  1

  0
ENDBLK
  5
E
330
A
100
AcDbEntity
  8
0
100
AcDbBlockEnd
  0
BLOCK
  5
F
330
B
100
AcDbEntity
 67
     1
  8
0
100
AcDbBlockBegin
  2
*PAPER_SPACE
 70
     0
 10
0.0
 20
0.0
 30
0.0
  3
*PAPER_SPACE
  1

  0
ENDBLK
  5
10
330
B
100
AcDbEntity
 67
     1
  8
0
100
AcDbBlockEnd
  0
ENDSEC
  0
SECTION
  2
ENTITIES
  0
LWPOLYLINE
  5
2F
330
A
100
AcDbEntity
  8
ADP1DETAIL
  6
CONTINUOUS
 62
     7
100
AcDbPolyline
 90
        2
 70
   128
 43
0.0
 10
33.67810498587592
 20
5.660892435043789
 10
33.67810498587592
 20
7.41089243504379
  0
LWPOLYLINE
  5
33
330
A
100
AcDbEntity
  8
ADP1DETAIL
  6
CONTINUOUS
 62
     7
100
AcDbPolyline
 90
        2
 70
   128
 43
0.0
 10
36.42810498587592
 20
7.410892435043789
 10
36.42810498587591
 20
5.660892435043789
  0
LWPOLYLINE
  5
37
330
A
100
AcDbEntity
  8
ADP2DETAIL
  6
CONTINUOUS
 62
     5
100
AcDbPolyline
 90
        2
 70
   128
 43
0.0
 10
36.14326447210474
 20
5.660892435043789
 10
36.14326447210474
 20
7.660892435043789
  0
LWPOLYLINE
  5
3B
330
A
100
AcDbEntity
  8
ADP2DETAIL
  6
CONTINUOUS
 62
     5
100
AcDbPolyline
 90
        2
 70
   128
 43
0.0
 10
33.96000862667151
 20
5.660892435043789
 10
33.96000862667151
 20
7.660892435043789
  0
LWPOLYLINE
  5
3F
330
A
100
AcDbEntity
  8
ADP1DETAIL
  6
CONTINUOUS
 62
     7
100
AcDbPolyline
 90
        2
 70
   128
 43
0.0
 10
34.15848642715187
 20
7.660892435043789
 10
34.15848642715187
 20
5.660892435043789
  0
LWPOLYLINE
  5
43
330
A
100
AcDbEntity
  8
ADP1DETAIL
  6
CONTINUOUS
 62
     7
100
AcDbPolyline
 90
        2
 70
   128
 43
0.0
 10
35.96959637660977
 20
7.660892435043789
 10
35.96959637660977
 20
5.660892435043789
  0
LWPOLYLINE
  5
47
330
A
100
AcDbEntity
  8
ADP1DETAIL
  6
CONTINUOUS
 62
     7
100
AcDbPolyline
 90
        2
 70
   128
 43
0.0
 10
39.66455779392026
 20
1.748785683663186
 10
38.16455779392026
 20
1.748785683663186
  0
LWPOLYLINE
  5
4B
330
A
100
AcDbEntity
  8
ADP2DETAIL
  6
CONTINUOUS
 62
     5
100
AcDbPolyline
 90
        2
 70
   128
 43
0.0
 10
39.76013119896768
 20
1.879821780667441
 10
38.16260647323821
 20
1.879821780667441
  0
LWPOLYLINE
  5
4F
330
A
100
AcDbEntity
  8
ADP1DETAIL
  6
CONTINUOUS
 62
     7
100
AcDbPolyline
 90
        2
 70
   128
 43
0.0
 10
38.16455779392026
 20
2.364655516610923
 10
40.05175839995992
 20
2.364655516610923
  0
LWPOLYLINE
  5
53
330
A
100
AcDbEntity
  8
ADP1DETAIL
  6
CONTINUOUS
 62
     7
100
AcDbPolyline
 90
        2
 70
   128
 43
0.0
 10
38.16455779392026
 20
3.072250658314203
 10
40.00941640297306
 20
3.072250658314203
  0
LWPOLYLINE
  5
57
330
A
100
AcDbEntity
  8
ADP1DETAIL
  6
CONTINUOUS
 62
     7
100
AcDbPolyline
 90
        2
 70
   128
 43
0.0
 10
38.16455779392026
 20
2.272930207855381
 10
39.77892250832718
 20
2.272930207855381
  0
LWPOLYLINE
  5
5B
330
A
100
AcDbEntity
  8
ADP1DETAIL
  6
CONTINUOUS
 62
     7
100
AcDbPolyline
 90
        2
 70
   128
 43
0.0
 10
38.16455779392026
 20
3.177079563152659
 10
39.66455779392026
 20
3.177079563152659
  0
ARC
  5
5F
330
A
100
AcDbEntity
  8
ADP1DETAIL
  6
CONTINUOUS
 62
     7
100
AcDbCircle
 10
-39.14221817860974
 20
2.684418265835736
 30
0.0
 40
0.7180207710064784
210
0.0
220
0.0
230
-1.0
100
AcDbArc
 50
95.78228204644579
 51
136.6748339711555
  0
LWPOLYLINE
  5
60
330
A
100
AcDbEntity
  8
ADP1DETAIL
  6
CONTINUOUS
 62
     7
100
AcDbPolyline
 90
        2
 70
   128
 43
0.0
 10
36.31693252745039
 20
4.160892435043789
 10
33.81115027631125
 20
4.160892435043789
  0
LWPOLYLINE
  5
64
330
A
100
AcDbEntity
  8
ADP1DETAIL
  6
CONTINUOUS
 62
     7
100
AcDbPolyline
 90
        2
 70
   128
 43
0.0
 10
36.42810498587591
 20
5.660892435043789
 10
33.67810498587592
 20
5.660892435043789
  0
LWPOLYLINE
  5
68
330
A
100
AcDbEntity
  8
ADP1DETAIL
  6
CONTINUOUS
 62
     7
100
AcDbPolyline
 90
        2
 70
   128
 43
0.0
 10
35.9749911165108
 20
2.592133330795844
 10
36.19483103838142
 20
2.592133330795844
  0
LWPOLYLINE
  5
6C
330
A
100
AcDbEntity
  8
ADP1DETAIL
  6
CONTINUOUS
 62
     7
100
AcDbPolyline
 90
        2
 70
   128
 43
0.0
 10
36.04245732612459
 20
2.467133330795844
 10
36.19483103838142
 20
2.467133330795844
  0
ARC
  5
70
330
A
100
AcDbEntity
  8
ADP1DETAIL
  6
CONTINUOUS
 62
     7
100
AcDbCircle
 10
-36.15637385506221
 20
2.673366394118569
 30
0.0
 40
0.3130000000000002
210
0.0
220
0.0
230
-1.0
100
AcDbArc
 50
251.9271784863798
 51
268.405293726224
  0
ARC
  5
71
330
A
100
AcDbEntity
  8
ADP1DETAIL
  6
CONTINUOUS
 62
     7
100
AcDbCircle
 10
-36.1580344563381
 20
2.641366200877423
 30
0.0
 40
0.1786300274572065
210
0.0
220
0.0
230
-1.0
100
AcDbArc
 50
234.8522983568205
 51
282.7391758714643
  0
ARC
  5
72
330
A
100
AcDbEntity
  8
ADP1DETAIL
  6
CONTINUOUS
 62
     7
100
AcDbCircle
 10
-35.92548982716063
 20
2.581223319080911
 30
0.0
 40
0.2620000000000002
210
0.0
220
0.0
230
-1.0
100
AcDbArc
 50
111.2920601336731
 51
177.9223626230398
  0
ARC
  5
73
330
A
100
AcDbEntity
  8
ADP1DETAIL
  6
CONTINUOUS
 62
     7
100
AcDbCircle
 10
-36.1580344563381
 20
2.641366200877423
 30
0.0
 40
0.0536300274572072
210
0.0
220
0.0
230
-1.0
100
AcDbArc
 50
234.8522983568197
 51
282.7391758714673
  0
LWPOLYLINE
  5
74
330
A
100
AcDbEntity
  8
ADP1DETAIL
  6
CONTINUOUS
 62
     7
100
AcDbPolyline
 90
        2
 70
   128
 43
0.0
 10
36.04245732612459
 20
2.592133330795844
 10
36.19483103838142
 20
2.592133330795844
  0
ARC
  5
78
330
A
100
AcDbEntity
  8
ADP1DETAIL
  6
CONTINUOUS
 62
     7
100
AcDbCircle
 10
-35.92600254665399
 20
2.578871576651457
 30
0.0
 40
0.5119999999999969
210
0.0
220
0.0
230
-1.0
100
AcDbArc
 50
95.75683950507118
 51
182.2374092524237
  0
ARC
  5
79
330
A
100
AcDbEntity
  8
ADP1DETAIL
  6
CONTINUOUS
 62
     7
100
AcDbCircle
 10
-35.92548982716063
 20
2.581223319080911
 30
0.0
 40
0.3870000000000009
210
0.0
220
0.0
230
-1.0
100
AcDbArc
 50
111.2920601336728
 51
177.9223626230398
  0
LWPOLYLINE
  5
7A
330
A
100
AcDbEntity
  8
ADP1DETAIL
  6
CONTINUOUS
 62
     7
100
AcDbPolyline
 90
        2
 70
   128
 43
0.0
 10
34.57361251440774
 20
1.874261967620221
 10
35.55002887707539
 20
1.874261967620221
  0
LWPOLYLINE
  5
7E
330
A
100
AcDbEntity
  8
ADP1DETAIL
  6
CONTINUOUS
 62
     7
100
AcDbPolyline
 90
        2
 70
   128
 43
0.0
 10
34.15465156432251
 20
1.749261967620221
 10
35.96898982716063
 20
1.749261967620221
  0
ARC
  5
82
330
A
100
AcDbEntity
  8
ADP1DETAIL
  6
CONTINUOUS
 62
     7
100
AcDbCircle
 10
-34.35363884482915
 20
3.957871576651458
 30
0.0
 40
0.7717452390517181
210
0.0
220
0.0
230
-1.0
100
AcDbArc
 50
236.5847847066104
 51
283.9425150336911
  0
ARC
  5
83
330
A
100
AcDbEntity
  8
ADP1DETAIL
  6
CONTINUOUS
 62
     7
100
AcDbCircle
 10
-34.35363884482915
 20
3.957871576651458
 30
0.0
 40
0.8979065642040437
210
0.0
220
0.0
230
-1.0
100
AcDbArc
 50
235.9633951869898
 51
259.5454697351375
  0
ARC
  5
84
330
A
100
AcDbEntity
  8
ADP1DETAIL
  6
CONTINUOUS
 62
     7
100
AcDbCircle
 10
-34.35363884482915
 20
3.957871576651458
 30
0.0
 40
1.022906564204044
210
0.0
220
0.0
230
-1.0
100
AcDbArc
 50
235.9633951869895
 51
259.5454697351374
  0
LWPOLYLINE
  5
85
330
A
100
AcDbEntity
  8
ADP1DETAIL
  6
CONTINUOUS
 62
     7
100
AcDbPolyline
 90
        2
 70
   128
 43
0.0
 10
34.14865027497234
 20
2.485081944033436
 10
34.14865027497234
 20
2.592133330795844
  0
ARC
  5
89
330
A
100
AcDbEntity
  8
ADP1DETAIL
  6
CONTINUOUS
 62
     7
100
AcDbCircle
 10
-33.92881035310172
 20
2.595253488075555
 30
0.0
 40
0.1180000000000021
210
0.0
220
0.0
230
-1.0
100
AcDbArc
 50
302.1114725148399
 51
360.0000000000008
  0
ARC
  5
8A
330
A
100
AcDbEntity
  8
ADP1DETAIL
  6
CONTINUOUS
 62
     7
100
AcDbCircle
 10
-33.9087434621035
 20
2.598750388311588
 30
0.0
 40
0.2262544251227715
210
0.0
220
0.0
230
-1.0
100
AcDbArc
 50
279.8169252959303
 51
349.8511462438171
  0
LWPOLYLINE
  5
8B
330
A
100
AcDbEntity
  8
ADP1DETAIL
  6
CONTINUOUS
 62
     7
100
AcDbPolyline
 90
        2
 70
   128
 43
0.0
 10
34.15465156432251
 20
1.749261967620221
 10
34.15465156432251
 20
2.086223319080913
  0
ARC
  5
8F
330
A
100
AcDbEntity
  8
ADP1DETAIL
  6
CONTINUOUS
 62
     7
100
AcDbCircle
 10
-33.96827867843995
 20
2.087042891722787
 30
0.0
 40
0.3120000000000031
210
0.0
220
0.0
230
-1.0
100
AcDbArc
 50
114.3776808786156
 51
178.2203418163726
  0
ARC
  5
90
330
A
100
AcDbEntity
  8
ADP1DETAIL
  6
CONTINUOUS
 62
     7
100
AcDbCircle
 10
-33.96827867843995
 20
2.087042891722787
 30
0.0
 40
0.1870000000000036
210
0.0
220
0.0
230
-1.0
100
AcDbArc
 50
92.90966568373727
 51
184.6936592718586
  0
ARC
  5
91
330
A
100
AcDbEntity
  8
ADP1DETAIL
  6
CONTINUOUS
 62
     7
100
AcDbCircle
 10
-33.96827867843995
 20
2.087042891722787
 30
0.0
 40
0.4369999999999982
210
0.0
220
0.0
230
-1.0
100
AcDbArc
 50
114.3776808786156
 51
178.2203418163726
  0
ARC
  5
92
330
A
100
AcDbEntity
  8
ADP1DETAIL
  6
CONTINUOUS
 62
     7
100
AcDbCircle
 10
-34.08118406535855
 20
2.457133330795846
 30
0.0
 40
0.009999999999998
210
0.0
220
0.0
230
-1.0
100
AcDbArc
 50
90.0
 51
180.0
  0
ARC
  5
93
330
A
100
AcDbEntity
  8
ADP1DETAIL
  6
CONTINUOUS
 62
     7
100
AcDbCircle
 10
-34.10118406535855
 20
2.380334825004317
 30
0.0
 40
0.009999999999998
210
0.0
220
0.0
230
-1.0
100
AcDbArc
 50
294.3776808786017
 51
360.0000000000008
  0
LWPOLYLINE
  5
94
330
A
100
AcDbEntity
  8
ADP1DETAIL
  6
CONTINUOUS
 62
     7
100
AcDbPolyline
 90
        2
 70
   128
 43
0.0
 10
34.09118406535855
 20
2.380334825004317
 10
34.09118406535855
 20
2.457133330795846
  0
LWPOLYLINE
  5
98
330
A
100
AcDbEntity
  8
ADP1DETAIL
  6
CONTINUOUS
 62
     7
100
AcDbPolyline
 90
        2
 70
   128
 43
0.0
 10
33.96827867843995
 20
2.28378892090762
 10
33.96827867843995
 20
2.350491495075305
  0
ARC
  5
9C
330
A
100
AcDbEntity
  8
ADP1DETAIL
  6
CONTINUOUS
 62
     7
100
AcDbCircle
 10
-33.96726753642092
 20
2.673366394118569
 30
0.0
 40
0.3129999999999995
210
0.0
220
0.0
230
-1.0
100
AcDbArc
 50
271.5947062737776
 51
288.0728215136218
  0
ARC
  5
9D
330
A
100
AcDbEntity
  8
ADP1DETAIL
  6
CONTINUOUS
 62
     7
100
AcDbCircle
 10
-33.95827867843995
 20
2.350491495075305
 30
0.0
 40
0.009999999999998
210
0.0
220
0.0
230
-1.0
100
AcDbArc
 50
91.59470627375576
 51
180.0
  0
ARC
  5
9E
330
A
100
AcDbEntity
  8
ADP1DETAIL
  6
CONTINUOUS
 62
     7
100
AcDbCircle
 10
-33.96222234049672
 20
2.633665308570206
 30
0.0
 40
0.170392911857327
210
0.0
220
0.0
230
-1.0
100
AcDbArc
 50
257.7797090429517
 51
305.7078517377979
  0
LWPOLYLINE
  5
9F
330
A
100
AcDbEntity
  8
ADP1DETAIL
  6
CONTINUOUS
 62
     7
100
AcDbPolyline
 90
        2
 70
   128
 43
0.0
 10
34.09073306782935
 20
2.467133330795844
 10
33.92754133876589
 20
2.467133330795844
  0
ARC
  5
A3
330
A
100
AcDbEntity
  8
ADP1DETAIL
  6
CONTINUOUS
 62
     7
100
AcDbCircle
 10
-33.97827867843995
 20
2.28378892090762
 30
0.0
 40
0.009999999999998
210
0.0
220
0.0
230
-1.0
100
AcDbArc
 50
272.9096656837409
 51
360.0000000000008
  0
LWPOLYLINE
  5
A4
330
A
100
AcDbEntity
  8
ADP1DETAIL
  6
CONTINUOUS
 62
     7
100
AcDbPolyline
 90
        2
 70
   128
 43
0.0
 10
34.41024528610415
 20
2.087042891722787
 10
34.29012336147821
 20
2.087042891722787
  0
ARC
  5
A8
330
A
100
AcDbEntity
  8
ADP1DETAIL
  6
CONTINUOUS
 62
     7
100
AcDbCircle
 10
-34.86814698609636
 20
2.269502128866382
 30
0.0
 40
0.492915144903038
210
0.0
220
0.0
230
-1.0
100
AcDbArc
 50
306.6936192357274
 51
339.9627746903957
  0
ARC
  5
A9
330
A
100
AcDbEntity
  8
ADP1DETAIL
  6
CONTINUOUS
 62
     7
100
AcDbCircle
 10
-34.29012336147821
 20
2.097042891722785
 30
0.0
 40
0.0099999999999985
210
0.0
220
0.0
230
-1.0
100
AcDbArc
 50
270.0000000000008
 51
358.2203418163722
  0
ARC
  5
AA
330
A
100
AcDbEntity
  8
ADP1DETAIL
  6
CONTINUOUS
 62
     7
100
AcDbCircle
 10
-34.19815156432251
 20
2.581223319080911
 30
0.0
 40
0.3870000000000008
210
0.0
220
0.0
230
-1.0
100
AcDbArc
 50
2.077637376960281
 51
68.70793986632719
  0
ARC
  5
AB
330
A
100
AcDbEntity
  8
ADP1DETAIL
  6
CONTINUOUS
 62
     7
100
AcDbCircle
 10
-34.19763884482915
 20
2.578871576651457
 30
0.0
 40
0.512
210
0.0
220
0.0
230
-1.0
100
AcDbArc
 50
357.7625907475778
 51
84.24316049492885
  0
ARC
  5
AC
330
A
100
AcDbEntity
  8
ADP1DETAIL
  6
CONTINUOUS
 62
     7
100
AcDbCircle
 10
-35.14661132541129
 20
-0.0123706514524407
 30
0.0
 40
3.149999999999999
210
0.0
220
0.0
230
-1.0
100
AcDbArc
 50
69.76134537375753
 51
78.4684602449762
  0
ARC
  5
AD
330
A
100
AcDbEntity
  8
ADP1DETAIL
  6
CONTINUOUS
 62
     7
100
AcDbCircle
 10
-35.14661132541129
 20
-0.0123706514524407
 30
0.0
 40
3.025
210
0.0
220
0.0
230
-1.0
100
AcDbArc
 50
69.76134537375748
 51
78.46846024497613
  0
LWPOLYLINE
  5
AE
330
A
100
AcDbEntity
  8
ADP1DETAIL
  6
CONTINUOUS
 62
     7
100
AcDbPolyline
 90
        2
 70
   128
 43
0.0
 10
34.15527867843995
 20
3.098238896547206
 10
34.15527867843995
 20
3.199158148209689
  0
ARC
  5
B2
330
A
100
AcDbEntity
  8
ADP1DETAIL
  6
CONTINUOUS
 62
     7
100
AcDbCircle
 10
-34.14527867843995
 20
3.098238896547206
 30
0.0
 40
0.0099999999999997
210
0.0
220
0.0
230
-1.0
100
AcDbArc
 50
180.0
 51
264.2431604949422
  0
ARC
  5
B3
330
A
100
AcDbEntity
  8
ADP1DETAIL
  6
CONTINUOUS
 62
     7
100
AcDbCircle
 10
-34.16527867843995
 20
3.199158148209689
 30
0.0
 40
0.0100000000000004
210
0.0
220
0.0
230
-1.0
100
AcDbArc
 50
0.0
 51
103.9425150336997
  0
LWPOLYLINE
  5
B4
330
A
100
AcDbEntity
  8
ADP1DETAIL
  6
CONTINUOUS
 62
     7
100
AcDbPolyline
 90
        2
 70
   128
 43
0.0
 10
34.14865027497234
 20
2.592133330795844
 10
33.92754133876589
 20
2.592133330795844
  0
ARC
  5
B8
330
A
100
AcDbEntity
  8
ADP1DETAIL
  6
CONTINUOUS
 62
     7
100
AcDbCircle
 10
-34.19815156432251
 20
2.581223319080911
 30
0.0
 40
0.2620000000000012
210
0.0
220
0.0
230
-1.0
100
AcDbArc
 50
2.077637376960229
 51
68.70793986632688
  0
LWPOLYLINE
  5
B9
330
A
100
AcDbEntity
  8
ADP1DETAIL
  6
CONTINUOUS
 62
     7
100
AcDbPolyline
 90
        2
 70
   128
 43
0.0
 10
35.9749911165108
 20
2.485081944033436
 10
35.9749911165108
 20
2.592133330795844
  0
LWPOLYLINE
  5
BD
330
A
100
AcDbEntity
  8
ADP1DETAIL
  6
CONTINUOUS
 62
     7
100
AcDbPolyline
 90
        2
 70
   128
 43
0.0
 10
35.96898982716063
 20
1.749261967620221
 10
35.96898982716063
 20
2.086223319080913
  0
LWPOLYLINE
  5
C1
330
A
100
AcDbEntity
  8
ADP1DETAIL
  6
CONTINUOUS
 62
     7
100
AcDbPolyline
 90
        2
 70
   128
 43
0.0
 10
35.71844037152405
 20
2.087042891722787
 10
35.83351803000492
 20
2.087042891722787
  0
ARC
  5
C5
330
A
100
AcDbEntity
  8
ADP1DETAIL
  6
CONTINUOUS
 62
     7
100
AcDbCircle
 10
-36.15536271304319
 20
2.087042891722787
 30
0.0
 40
0.4370000000000003
210
0.0
220
0.0
230
-1.0
100
AcDbArc
 50
1.779658183627341
 51
65.62231912138431
  0
ARC
  5
C6
330
A
100
AcDbEntity
  8
ADP1DETAIL
  6
CONTINUOUS
 62
     7
100
AcDbCircle
 10
-35.25549440538678
 20
2.269502128866382
 30
0.0
 40
0.4929151449030377
210
0.0
220
0.0
230
-1.0
100
AcDbArc
 50
200.0372253096058
 51
233.3063807642742
  0
ARC
  5
C7
330
A
100
AcDbEntity
  8
ADP1DETAIL
  6
CONTINUOUS
 62
     7
100
AcDbCircle
 10
-36.16536271304319
 20
2.350491495075305
 30
0.0
 40
0.0099999999999998
210
0.0
220
0.0
230
-1.0
100
AcDbArc
 50
0.0
 51
88.40529372624423
  0
LWPOLYLINE
  5
C8
330
A
100
AcDbEntity
  8
ADP1DETAIL
  6
CONTINUOUS
 62
     7
100
AcDbPolyline
 90
        2
 70
   128
 43
0.0
 10
36.15536271304319
 20
2.28378892090762
 10
36.15536271304319
 20
2.350491495075305
  0
ARC
  5
CC
330
A
100
AcDbEntity
  8
ADP1DETAIL
  6
CONTINUOUS
 62
     7
100
AcDbCircle
 10
-36.02245732612459
 20
2.380334825004317
 30
0.0
 40
0.0099999999999989
210
0.0
220
0.0
230
-1.0
100
AcDbArc
 50
180.0
 51
245.6223191213999
  0
ARC
  5
CD
330
A
100
AcDbEntity
  8
ADP1DETAIL
  6
CONTINUOUS
 62
     7
100
AcDbCircle
 10
-36.04245732612459
 20
2.457133330795846
 30
0.0
 40
0.0099999999999998
210
0.0
220
0.0
230
-1.0
100
AcDbArc
 50
0.0
 51
90.0
  0
LWPOLYLINE
  5
CE
330
A
100
AcDbEntity
  8
ADP1DETAIL
  6
CONTINUOUS
 62
     7
100
AcDbPolyline
 90
        2
 70
   128
 43
0.0
 10
36.03245732612459
 20
2.380334825004317
 10
36.03245732612459
 20
2.457133330795846
  0
ARC
  5
D2
330
A
100
AcDbEntity
  8
ADP1DETAIL
  6
CONTINUOUS
 62
     7
100
AcDbCircle
 10
-36.14536271304319
 20
2.28378892090762
 30
0.0
 40
0.0099999999999999
210
0.0
220
0.0
230
-1.0
100
AcDbArc
 50
180.0
 51
267.0903343162606
  0
ARC
  5
D3
330
A
100
AcDbEntity
  8
ADP1DETAIL
  6
CONTINUOUS
 62
     7
100
AcDbCircle
 10
-36.15536271304319
 20
2.087042891722787
 30
0.0
 40
0.187
210
0.0
220
0.0
230
-1.0
100
AcDbArc
 50
355.3063407281429
 51
87.09033431626272
  0
ARC
  5
D4
330
A
100
AcDbEntity
  8
ADP1DETAIL
  6
CONTINUOUS
 62
     7
100
AcDbCircle
 10
-35.83351803000492
 20
2.097042891722785
 30
0.0
 40
0.0099999999999998
210
0.0
220
0.0
230
-1.0
100
AcDbArc
 50
181.7796581836293
 51
270.0000000000008
  0
ARC
  5
D5
330
A
100
AcDbEntity
  8
ADP1DETAIL
  6
CONTINUOUS
 62
     7
100
AcDbCircle
 10
-36.15536271304319
 20
2.087042891722787
 30
0.0
 40
0.3120000000000001
210
0.0
220
0.0
230
-1.0
100
AcDbArc
 50
1.779658183627297
 51
65.62231912138432
  0
ARC
  5
D6
330
A
100
AcDbEntity
  8
ADP1DETAIL
  6
CONTINUOUS
 62
     7
100
AcDbCircle
 10
-35.77000254665399
 20
3.957871576651458
 30
0.0
 40
0.8979065642040422
210
0.0
220
0.0
230
-1.0
100
AcDbArc
 50
280.454530264864
 51
304.0366048130118
  0
ARC
  5
D7
330
A
100
AcDbEntity
  8
ADP1DETAIL
  6
CONTINUOUS
 62
     7
100
AcDbCircle
 10
-35.77000254665399
 20
3.957871576651458
 30
0.0
 40
1.022906564204044
210
0.0
220
0.0
230
-1.0
100
AcDbArc
 50
280.4545302648641
 51
304.036604813012
  0
ARC
  5
D8
330
A
100
AcDbEntity
  8
ADP1DETAIL
  6
CONTINUOUS
 62
     7
100
AcDbCircle
 10
-35.77000254665399
 20
3.957871576651458
 30
0.0
 40
0.7717452390517181
210
0.0
220
0.0
230
-1.0
100
AcDbArc
 50
256.0574849663104
 51
303.4152152933912
  0
ARC
  5
D9
330
A
100
AcDbEntity
  8
ADP1DETAIL
  6
CONTINUOUS
 62
     7
100
AcDbCircle
 10
-35.06300254665399
 20
2.899263364393752
 30
0.0
 40
0.3750000000000018
210
0.0
220
0.0
230
-1.0
100
AcDbArc
 50
89.81942618295084
 51
123.0192648504788
  0
ARC
  5
DA
330
A
100
AcDbEntity
  8
ADP1DETAIL
  6
CONTINUOUS
 62
     7
100
AcDbCircle
 10
-35.06063884482915
 20
2.899263364393752
 30
0.0
 40
0.375
210
0.0
220
0.0
230
-1.0
100
AcDbArc
 50
56.98073514952121
 51
90.18057381704915
  0
ARC
  5
DB
330
A
100
AcDbEntity
  8
ADP1DETAIL
  6
CONTINUOUS
 62
     7
100
AcDbCircle
 10
-35.06063884482915
 20
2.899263364393752
 30
0.0
 40
0.25
210
0.0
220
0.0
230
-1.0
100
AcDbArc
 50
56.98073514952208
 51
90.18057381704968
  0
ARC
  5
DC
330
A
100
AcDbEntity
  8
ADP1DETAIL
  6
CONTINUOUS
 62
     7
100
AcDbCircle
 10
-35.06300254665399
 20
2.899263364393752
 30
0.0
 40
0.2499999999999984
210
0.0
220
0.0
230
-1.0
100
AcDbArc
 50
89.81942618295031
 51
123.0192648504779
  0
ARC
  5
DD
330
A
100
AcDbEntity
  8
ADP1DETAIL
  6
CONTINUOUS
 62
     7
100
AcDbCircle
 10
-35.06282023019311
 20
2.884587527869312
 30
0.0
 40
0.514675410333573
210
0.0
220
0.0
230
-1.0
100
AcDbArc
 50
56.48517752250207
 51
89.88872765164051
  0
ARC
  5
DE
330
A
100
AcDbEntity
  8
ADP1DETAIL
  6
CONTINUOUS
 62
     7
100
AcDbCircle
 10
-35.06082116129003
 20
2.884587527869312
 30
0.0
 40
0.5146754103335715
210
0.0
220
0.0
230
-1.0
100
AcDbArc
 50
90.11127234835948
 51
123.5148224774979
  0
ARC
  5
DF
330
A
100
AcDbEntity
  8
ADP1DETAIL
  6
CONTINUOUS
 62
     7
100
AcDbCircle
 10
-34.97703006607185
 20
-0.0123706514524407
 30
0.0
 40
3.149999999999999
210
0.0
220
0.0
230
-1.0
100
AcDbArc
 50
101.5315397550238
 51
110.2386546262424
  0
ARC
  5
E0
330
A
100
AcDbEntity
  8
ADP1DETAIL
  6
CONTINUOUS
 62
     7
100
AcDbCircle
 10
-34.97703006607185
 20
-0.0123706514524407
 30
0.0
 40
3.025
210
0.0
220
0.0
230
-1.0
100
AcDbArc
 50
101.5315397550238
 51
110.2386546262425
  0
LWPOLYLINE
  5
E1
330
A
100
AcDbEntity
  8
ADP1DETAIL
  6
CONTINUOUS
 62
     7
100
AcDbPolyline
 90
        2
 70
   128
 43
0.0
 10
35.96836271304319
 20
3.098238896547206
 10
35.96836271304319
 20
3.199158148209689
  0
ARC
  5
E5
330
A
100
AcDbEntity
  8
ADP1DETAIL
  6
CONTINUOUS
 62
     7
100
AcDbCircle
 10
-35.97836271304319
 20
3.098238896547206
 30
0.0
 40
0.009999999999998
210
0.0
220
0.0
230
-1.0
100
AcDbArc
 50
275.7568395050593
 51
360.0000000000008
  0
ARC
  5
E6
330
A
100
AcDbEntity
  8
ADP1DETAIL
  6
CONTINUOUS
 62
     7
100
AcDbCircle
 10
-35.95836271304319
 20
3.199158148209689
 30
0.0
 40
0.009999999999998
210
0.0
220
0.0
230
-1.0
100
AcDbArc
 50
76.05748496630025
 51
180.0
  0
LWPOLYLINE
  5
E7
330
A
100
AcDbEntity
  8
ADP2DETAIL
  6
CONTINUOUS
 62
     5
100
AcDbPolyline
 90
        2
 70
   128
 43
0.0
 10
33.93519888153681
 20
5.660892435043789
 10
33.93519888153681
 20
4.160892435043789
  0
LWPOLYLINE
  5
EB
330
A
100
AcDbEntity
  8
ADP2DETAIL
  6
CONTINUOUS
 62
     5
100
AcDbPolyline
 90
        2
 70
   128
 43
0.0
 10
34.15848642715187
 20
5.660892435043789
 10
34.15848642715187
 20
4.160892435043789
  0
LWPOLYLINE
  5
EF
330
A
100
AcDbEntity
  8
ADP1DETAIL
  6
CONTINUOUS
 62
     7
100
AcDbPolyline
 90
        2
 70
   128
 43
0.0
 10
33.81115027631125
 20
5.660892435043789
 10
33.81115027631125
 20
4.160892435043789
  0
LWPOLYLINE
  5
F3
330
A
100
AcDbEntity
  8
ADP2DETAIL
  6
CONTINUOUS
 62
     5
100
AcDbPolyline
 90
        2
 70
   128
 43
0.0
 10
35.96959637660977
 20
5.660892435043789
 10
35.96959637660977
 20
4.160892435043789
  0
LWPOLYLINE
  5
F7
330
A
100
AcDbEntity
  8
ADP2DETAIL
  6
CONTINUOUS
 62
     5
100
AcDbPolyline
 90
        2
 70
   128
 43
0.0
 10
36.66455779392026
 20
3.15087237098686
 10
38.16260647323821
 20
3.15087237098686
  0
LWPOLYLINE
  5
FB
330
A
100
AcDbEntity
  8
ADP2DETAIL
  6
CONTINUOUS
 62
     5
100
AcDbPolyline
 90
        2
 70
   128
 43
0.0
 10
36.66455779392026
 20
2.587416922370721
 10
38.16260647323821
 20
2.587416922370721
  0
LWPOLYLINE
  5
FF
330
A
100
AcDbEntity
  8
ADP1DETAIL
  6
CONTINUOUS
 62
     7
100
AcDbPolyline
 90
        2
 70
   128
 43
0.0
 10
36.66455779392026
 20
2.089479590344325
 10
38.16455779392026
 20
2.089479590344325
  0
LWPOLYLINE
  5
103
330
A
100
AcDbEntity
  8
ADP1DETAIL
  6
CONTINUOUS
 62
     7
100
AcDbPolyline
 90
        2
 70
   128
 43
0.0
 10
36.66455779392026
 20
2.377759112693837
 10
38.16455779392026
 20
2.377759112693837
  0
LWPOLYLINE
  5
107
330
A
100
AcDbEntity
  8
ADP1DETAIL
  6
CONTINUOUS
 62
     7
100
AcDbPolyline
 90
        2
 70
   128
 43
0.0
 10
36.66455779392026
 20
2.469484421449379
 10
38.16455779392026
 20
2.469484421449379
  0
LWPOLYLINE
  5
10B
330
A
100
AcDbEntity
  8
ADP1DETAIL
  6
CONTINUOUS
 62
     7
100
AcDbPolyline
 90
        2
 70
   128
 43
0.0
 10
36.66455779392026
 20
3.268804871908201
 10
38.16455779392026
 20
3.268804871908201
  0
ARC
  5
10F
330
A
100
AcDbEntity
  8
ADP1DETAIL
  6
CONTINUOUS
 62
     7
100
AcDbCircle
 10
-36.19483103838142
 20
2.595253488075555
 30
0.0
 40
0.1180000000000015
210
0.0
220
0.0
230
-1.0
100
AcDbArc
 50
180.0
 51
237.8885274851616
  0
ARC
  5
110
330
A
100
AcDbEntity
  8
ADP1DETAIL
  6
CONTINUOUS
 62
     7
100
AcDbCircle
 10
-36.21489792937964
 20
2.598750388311588
 30
0.0
 40
0.2262544251227693
210
0.0
220
0.0
230
-1.0
100
AcDbArc
 50
190.1488537561844
 51
260.1830747040712
  0
LWPOLYLINE
  5
111
330
A
100
AcDbEntity
  8
ADP1DETAIL
  6
CONTINUOUS
 62
     7
100
AcDbPolyline
 90
        2
 70
   128
 43
0.0
 10
36.66455779392026
 20
2.089479590344325
 10
36.66455779392026
 20
3.268804871908201
  0
LWPOLYLINE
  5
115
330
A
100
AcDbEntity
  8
ADP1DETAIL
  6
CONTINUOUS
 62
     7
100
AcDbPolyline
 90
        2
 70
   128
 43
0.0
 10
38.16455779392026
 20
1.748785683663186
 10
38.16455779392026
 20
3.398785683663186
  0
LWPOLYLINE
  5
119
330
A
100
AcDbEntity
  8
ADP1DETAIL
  6
CONTINUOUS
 62
     7
100
AcDbPolyline
 90
        2
 70
   128
 43
0.0
 10
39.21455779392026
 20
3.398785683663186
 10
38.16455779392026
 20
3.398785683663186
  0
LWPOLYLINE
  5
11D
330
A
100
AcDbEntity
  8
ADP2DETAIL
  6
CONTINUOUS
 62
     5
100
AcDbPolyline
 90
        2
 70
   128
 43
0.0
 10
36.19288392222482
 20
5.660892435043789
 10
36.19288392222482
 20
4.160892435043789
  0
LWPOLYLINE
  5
121
330
A
100
AcDbEntity
  8
ADP1DETAIL
  6
CONTINUOUS
 62
     7
100
AcDbPolyline
 90
        2
 70
   128
 43
0.0
 10
36.31693252745039
 20
5.660892435043789
 10
36.31693252745039
 20
4.160892435043789
  0
ARC
  5
125
330
A
100
AcDbEntity
  8
ADP1DETAIL
  6
CONTINUOUS
 62
     7
100
AcDbCircle
 10
-39.61748866037525
 20
2.724777156140164
 30
0.0
 40
0.5641611489425378
210
0.0
220
0.0
230
-1.0
100
AcDbArc
 50
165.8604599361999
 51
226.9902939757116
  0
ARC
  5
126
330
A
100
AcDbEntity
  8
ADP1DETAIL
  6
CONTINUOUS
 62
     7
100
AcDbCircle
 10
-38.94887118130673
 20
2.371155974094777
 30
0.0
 40
0.9484472077486147
210
0.0
220
0.0
230
-1.0
100
AcDbArc
 50
185.5361659258907
 51
221.0106416298927
  0
ARC
  5
127
330
A
100
AcDbEntity
  8
ADP1DETAIL
  6
CONTINUOUS
 62
     7
100
AcDbCircle
 10
-39.8068606648101
 20
2.768562616499643
 30
0.0
 40
0.4964192029788699
210
0.0
220
0.0
230
-1.0
100
AcDbArc
 50
246.8132428267982
 51
273.2262746321592
  0
ARC
  5
128
330
A
100
AcDbEntity
  8
ADP1DETAIL
  6
CONTINUOUS
 62
     7
100
AcDbCircle
 10
-39.70276358522289
 20
2.683106228249086
 30
0.0
 40
0.4954486230527098
210
0.0
220
0.0
230
-1.0
100
AcDbArc
 50
85.57732965826229
 51
158.7602743499143
  0
LWPOLYLINE
  5
129
330
A
100
AcDbEntity
  8
ADP1DETAIL
  6
CONTINUOUS
 62
     7
100
AcDbPolyline
 90
        2
 70
   128
 43
0.0
 10
33.92810498587591
 20
7.66089243504379
 10
36.17810498587592
 20
7.660892435043789
  0
ARC
  5
12D
330
A
100
AcDbEntity
  8
ADP1DETAIL
  6
CONTINUOUS
 62
     7
100
AcDbCircle
 10
-33.92810498587591
 20
7.41089243504379
 30
0.0
 40
0.25
210
0.0
220
0.0
230
-1.0
100
AcDbArc
 50
0.0
 51
90.0
  0
ARC
  5
12E
330
A
100
AcDbEntity
  8
ADP1DETAIL
  6
CONTINUOUS
 62
     7
100
AcDbCircle
 10
-36.17810498587592
 20
7.410892435043789
 30
0.0
 40
0.25
210
0.0
220
0.0
230
-1.0
100
AcDbArc
 50
90.0
 51
180.0
  0
LWPOLYLINE
  5
12F
330
A
100
AcDbEntity
  8
ADPDIM
  6
CONTINUOUS
 62
     3
 48
0.125
100
AcDbPolyline
 90
        2
 70
   128
 43
0.0
 10
33.74865027631125
 20
5.660892435043789
 10
33.18457522523044
 20
5.660892435043789
  0
LWPOLYLINE
  5
133
330
A
100
AcDbEntity
  8
ADPDIM
  6
CONTINUOUS
 62
     3
 48
0.125
100
AcDbPolyline
 90
        2
 70
   128
 43
0.0
 10
33.86560498587591
 20
7.66089243504379
 10
33.18457522523044
 20
7.66089243504379
  0
LWPOLYLINE
  5
137
330
A
100
AcDbEntity
  8
ADPDIM
  6
CONTINUOUS
 62
     3
 48
0.125
100
AcDbPolyline
 90
        2
 70
   128
 43
0.0
 10
33.36457522523044
 20
5.660892435043789
 10
33.36457522523044
 20
6.494225768377122
  0
LWPOLYLINE
  5
13B
330
A
100
AcDbEntity
  8
ADPDIM
  6
CONTINUOUS
 62
     3
 48
0.125
100
AcDbPolyline
 90
        2
 70
   128
 43
0.0
 10
33.36457522523044
 20
7.66089243504379
 10
33.36457522523044
 20
6.827559101710456
  0
LWPOLYLINE
  5
13F
330
A
100
AcDbEntity
  8
ADPDIM
  6
CONTINUOUS
 62
     3
 48
0.125
100
AcDbPolyline
 90
        2
 70
   128
 43
0.0
 10
33.48957522523044
 20
7.53589243504379
 10
33.23957522523044
 20
7.78589243504379
  0
LWPOLYLINE
  5
143
330
A
100
AcDbEntity
  8
ADPDIM
  6
CONTINUOUS
 62
     3
 48
0.125
100
AcDbPolyline
 90
        2
 70
   128
 43
0.0
 10
33.48957522523044
 20
5.535892435043789
 10
33.23957522523044
 20
5.785892435043789
  0
TEXT
  5
147
330
A
100
AcDbEntity
  8
ADPDIM
 62
     3
 48
0.0
100
AcDbText
 10
33.30207522523044
 20
6.598392435043789
 30
0.0
 40
0.125
  1
2
 41
1.5
 72
     5
 11
33.42707522523044
 21
6.598392435043789
 31
0.0
100
AcDbText
  0
LWPOLYLINE
  5
148
330
A
100
AcDbEntity
  8
ADPDIM
  6
CONTINUOUS
 62
     3
 48
0.125
100
AcDbPolyline
 90
        2
 70
   128
 43
0.0
 10
33.67810498587592
 20
2.451459741658914
 10
33.67810498587592
 20
3.815185884103452
  0
LWPOLYLINE
  5
14C
330
A
100
AcDbEntity
  8
ADPDIM
  6
CONTINUOUS
 62
     3
 48
0.125
100
AcDbPolyline
 90
        2
 70
   128
 43
0.0
 10
36.43384707407211
 20
2.451459741658914
 10
36.43384707407211
 20
3.815185884103452
  0
LWPOLYLINE
  5
150
330
A
100
AcDbEntity
  8
ADPDIM
  6
CONTINUOUS
 62
     3
 48
0.125
100
AcDbPolyline
 90
        2
 70
   128
 43
0.0
 10
33.67810498587592
 20
3.635185884103452
 10
34.63930936330735
 20
3.635185884103452
  0
LWPOLYLINE
  5
154
330
A
100
AcDbEntity
  8
ADPDIM
  6
CONTINUOUS
 62
     3
 48
0.125
100
AcDbPolyline
 90
        2
 70
   128
 43
0.0
 10
36.43384707407211
 20
3.635185884103452
 10
35.47264269664068
 20
3.635185884103452
  0
LWPOLYLINE
  5
158
330
A
100
AcDbEntity
  8
ADPDIM
  6
CONTINUOUS
 62
     3
 48
0.125
100
AcDbPolyline
 90
        2
 70
   128
 43
0.0
 10
36.30884707407211
 20
3.510185884103452
 10
36.55884707407211
 20
3.760185884103452
  0
LWPOLYLINE
  5
15C
330
A
100
AcDbEntity
  8
ADPDIM
  6
CONTINUOUS
 62
     3
 48
0.125
100
AcDbPolyline
 90
        2
 70
   128
 43
0.0
 10
33.55310498587591
 20
3.510185884103452
 10
33.80310498587592
 20
3.760185884103452
  0
TEXT
  5
160
330
A
100
AcDbEntity
  8
ADPDIM
 62
     3
 48
0.0
100
AcDbText
 10
34.74347602997402
 20
3.572685884103452
 30
0.0
 40
0.125
  1
2 3/4
 41
1.071428571428571
 72
     5
 11
35.36847602997402
 21
3.572685884103452
 31
0.0
100
AcDbText
  0
LWPOLYLINE
  5
161
330
A
100
AcDbEntity
  8
DEFPOINTS
  6
CONTINUOUS
 62
     3
 48
0.125
100
AcDbPolyline
 90
        2
 70
   128
 43
0.0
 10
33.81115027631125
 20
5.660892435043788
 10
33.81115027631125
 20
5.660892435043788
  0
LWPOLYLINE
  5
165
330
A
100
AcDbEntity
  8
DEFPOINTS
  6
CONTINUOUS
 62
     3
 48
0.125
100
AcDbPolyline
 90
        2
 70
   128
 43
0.0
 10
33.81115027631125
 20
5.660892435043788
 10
33.81115027631125
 20
5.660892435043788
  0
LWPOLYLINE
  5
169
330
A
100
AcDbEntity
  8
DEFPOINTS
  6
CONTINUOUS
 62
     3
 48
0.125
100
AcDbPolyline
 90
        2
 70
   128
 43
0.0
 10
33.92810498587591
 20
7.660892435043789
 10
33.92810498587591
 20
7.660892435043789
  0
LWPOLYLINE
  5
16D
330
A
100
AcDbEntity
  8
DEFPOINTS
  6
CONTINUOUS
 62
     3
 48
0.125
100
AcDbPolyline
 90
        2
 70
   128
 43
0.0
 10
33.92810498587591
 20
7.660892435043789
 10
33.92810498587591
 20
7.660892435043789
  0
LWPOLYLINE
  5
171
330
A
100
AcDbEntity
  8
DEFPOINTS
  6
CONTINUOUS
 62
     3
 48
0.125
100
AcDbPolyline
 90
        2
 70
   128
 43
0.0
 10
33.36457522523044
 20
7.660892435043789
 10
33.36457522523044
 20
7.660892435043789
  0
LWPOLYLINE
  5
175
330
A
100
AcDbEntity
  8
DEFPOINTS
  6
CONTINUOUS
 62
     3
 48
0.125
100
AcDbPolyline
 90
        2
 70
   128
 43
0.0
 10
33.36457522523044
 20
7.660892435043789
 10
33.36457522523044
 20
7.660892435043789
  0
LWPOLYLINE
  5
179
330
A
100
AcDbEntity
  8
DEFPOINTS
  6
CONTINUOUS
 62
     3
 48
0.125
100
AcDbPolyline
 90
        2
 70
   128
 43
0.0
 10
33.67810498587592
 20
2.388959741658914
 10
33.67810498587592
 20
2.388959741658914
  0
LWPOLYLINE
  5
17D
330
A
100
AcDbEntity
  8
DEFPOINTS
  6
CONTINUOUS
 62
     3
 48
0.125
100
AcDbPolyline
 90
        2
 70
   128
 43
0.0
 10
33.67810498587592
 20
2.388959741658914
 10
33.67810498587592
 20
2.388959741658914
  0
LWPOLYLINE
  5
181
330
A
100
AcDbEntity
  8
DEFPOINTS
  6
CONTINUOUS
 62
     3
 48
0.125
100
AcDbPolyline
 90
        2
 70
   128
 43
0.0
 10
36.43384707407211
 20
2.388959741658914
 10
36.43384707407211
 20
2.388959741658914
  0
LWPOLYLINE
  5
185
330
A
100
AcDbEntity
  8
DEFPOINTS
  6
CONTINUOUS
 62
     3
 48
0.125
100
AcDbPolyline
 90
        2
 70
   128
 43
0.0
 10
36.43384707407211
 20
2.388959741658914
 10
36.43384707407211
 20
2.388959741658914
  0
LWPOLYLINE
  5
189
330
A
100
AcDbEntity
  8
DEFPOINTS
  6
CONTINUOUS
 62
     3
 48
0.125
100
AcDbPolyline
 90
        2
 70
   128
 43
0.0
 10
36.43384707407211
 20
3.635185884103451
 10
36.43384707407211
 20
3.635185884103451
  0
LWPOLYLINE
  5
18D
330
A
100
AcDbEntity
  8
DEFPOINTS
  6
CONTINUOUS
 62
     3
 48
0.125
100
AcDbPolyline
 90
        2
 70
   128
 43
0.0
 10
36.43384707407211
 20
3.635185884103451
 10
36.43384707407211
 20
3.635185884103451
  0
TEXT
  5
19E
330
A
100
AcDbEntity
  8
ADPDIM
100
AcDbText
 10
29.26047118196935
 20
0.9110490647615174
 30
0.0
 40
0.125
  1
J U L I U S  B L U M  &  C O . ,  I N C .      ( 8 0 0 )  5 2 6 - 6 2 9 3        W W W . J U L I U S B L U M . C O M        P A R T  N o .  5 5 3 8 - N
 41
1.25
  7
ARIAL_WIDE
 72
     1
 11
35.96200810216035
 21
1.036049064761517
 31
0.0
100
AcDbText
 73
     3
  0
ENDSEC
  0
SECTION
  2
OBJECTS
  0
DICTIONARY
  5
19
330
0
100
AcDbDictionary
  3
ACAD_GROUP
350
1A
  3
ACAD_LAYOUT
350
196
  3
ACAD_MLINESTYLE
350
1B
  3
ACAD_PLOTSETTINGS
350
197
  3
ACAD_PLOTSTYLENAME
350
194
  3
ACDBHEADERROUNDTRIPXREC
350
2FE
  3
ACDBVARIABLEDICTIONARY
350
200
  0
DICTIONARY
  5
1F4
330
A
100
AcDbDictionary
280
     1
  3
ACAD_LAYOUTSELFREF
360
31E
  0
DICTIONARY
  5
1F6
330
B
100
AcDbDictionary
280
     1
  3
ACAD_LAYOUTSELFREF
360
31F
  0
DICTIONARY
  5
1A
102
{ACAD_REACTORS
330
19
102
}
330
19
100
AcDbDictionary
  0
DICTIONARY
  5
196
102
{ACAD_REACTORS
330
19
102
}
330
19
100
AcDbDictionary
  0
DICTIONARY
  5
1B
102
{ACAD_REACTORS
330
19
102
}
330
19
100
AcDbDictionary
  3
STANDARD
350
1C
  0
DICTIONARY
  5
197
102
{ACAD_REACTORS
330
19
102
}
330
19
100
AcDbDictionary
  0
ACDBDICTIONARYWDFLT
  5
194
102
{ACAD_REACTORS
330
19
102
}
330
19
100
AcDbDictionary
281
     1
  3
Normal
350
195
100
AcDbDictionaryWithDefault
340
195
  0
DICTIONARY
  5
2FE
102
{ACAD_REACTORS
330
19
102
}
330
19
100
AcDbDictionary
  3
CEPSNTYPE
350
308
  3
FINGERPRINTGUID
350
309
  3
HYPERLINKBASE
350
301
  3
INSUNITS
350
307
  3
LAYOUTDICT
350
303
  3
LWETCUNION
350
306
  3
PLOTSETDICT
350
304
  3
PLOTSTYLNAMDICT
350
305
  3
PSVPSCALE
350
30B
  3
PUCSBASE
350
30E
  3
PUCSORGBACK
350
314
  3
PUCSORGBOTTOM
350
310
  3
PUCSORGFRONT
350
313
  3
PUCSORGLEFT
350
311
  3
PUCSORGRIGHT
350
312
  3
PUCSORGTOP
350
30F
  3
PUCSORTHOREF
350
30C
  3
PUCSORTHOVIEW
350
30D
  3
STYLESHEET
350
302
  3
TSTACKALIGN
350
2FF
  3
TSTACKSIZE
350
300
  3
UCSBASE
350
317
  3
UCSORGBACK
350
31D
  3
UCSORGBOTTOM
350
319
  3
UCSORGFRONT
350
31C
  3
UCSORGLEFT
350
31A
  3
UCSORGRIGHT
350
31B
  3
UCSORGTOP
350
318
  3
UCSORTHOREF
350
315
  3
UCSORTHOVIEW
350
316
  3
VERSIONGUID
350
30A
  0
DICTIONARY
  5
200
102
{ACAD_REACTORS
330
19
102
}
330
19
100
AcDbDictionary
  3
DIMASSOC
350
201
  0
XRECORD
  5
31E
102
{ACAD_REACTORS
330
1F4
102
}
330
1F4
100
AcDbXrecord
340
A
  0
XRECORD
  5
31F
102
{ACAD_REACTORS
330
1F6
102
}
330
1F6
100
AcDbXrecord
340
B
  0
MLINESTYLE
  5
1C
102
{ACAD_REACTORS
330
1B
102
}
330
1B
100
AcDbMlineStyle
  2
STANDARD
 70
     0
  3

 62
     0
 51
90.00000000000019
 52
90.00000000000019
 71
     2
 49
0.5
 62
   256
  6
BYLAYER
 49
-0.5
 62
   256
  6
BYLAYER
  0
ACDBPLACEHOLDER
  5
195
102
{ACAD_REACTORS
330
194
102
}
330
194
100
AcDbPlaceHolder
280
     0
  0
XRECORD
  5
308
102
{ACAD_REACTORS
330
2FE
102
}
330
2FE
100
AcDbXrecord
 90
        0
  0
XRECORD
  5
309
102
{ACAD_REACTORS
330
2FE
102
}
330
2FE
100
AcDbXrecord
  1
{EDAFF123-0CDD-4B54-9516-A2753B2C6CC8}
  0
XRECORD
  5
301
102
{ACAD_REACTORS
330
2FE
102
}
330
2FE
100
AcDbXrecord
  1

  0
XRECORD
  5
307
102
{ACAD_REACTORS
330
2FE
102
}
330
2FE
100
AcDbXrecord
 90
        0
  0
XRECORD
  5
303
102
{ACAD_REACTORS
330
2FE
102
}
330
2FE
100
AcDbXrecord
340
196
  0
XRECORD
  5
306
102
{ACAD_REACTORS
330
2FE
102
}
330
2FE
100
AcDbXrecord
 90
    14877
  0
XRECORD
  5
304
102
{ACAD_REACTORS
330
2FE
102
}
330
2FE
100
AcDbXrecord
340
197
  0
XRECORD
  5
305
102
{ACAD_REACTORS
330
2FE
102
}
330
2FE
100
AcDbXrecord
340
194
  0
XRECORD
  5
30B
102
{ACAD_REACTORS
330
2FE
102
}
330
2FE
100
AcDbXrecord
 40
0.0
  0
XRECORD
  5
30E
102
{ACAD_REACTORS
330
2FE
102
}
330
2FE
100
AcDbXrecord
340
0
  0
XRECORD
  5
314
102
{ACAD_REACTORS
330
2FE
102
}
330
2FE
100
AcDbXrecord
 10
0.0
 20
0.0
 30
0.0
  0
XRECORD
  5
310
102
{ACAD_REACTORS
330
2FE
102
}
330
2FE
100
AcDbXrecord
 10
0.0
 20
0.0
 30
0.0
  0
XRECORD
  5
313
102
{ACAD_REACTORS
330
2FE
102
}
330
2FE
100
AcDbXrecord
 10
0.0
 20
0.0
 30
0.0
  0
XRECORD
  5
311
102
{ACAD_REACTORS
330
2FE
102
}
330
2FE
100
AcDbXrecord
 10
0.0
 20
0.0
 30
0.0
  0
XRECORD
  5
312
102
{ACAD_REACTORS
330
2FE
102
}
330
2FE
100
AcDbXrecord
 10
0.0
 20
0.0
 30
0.0
  0
XRECORD
  5
30F
102
{ACAD_REACTORS
330
2FE
102
}
330
2FE
100
AcDbXrecord
 10
0.0
 20
0.0
 30
0.0
  0
XRECORD
  5
30C
102
{ACAD_REACTORS
330
2FE
102
}
330
2FE
100
AcDbXrecord
340
0
  0
XRECORD
  5
30D
102
{ACAD_REACTORS
330
2FE
102
}
330
2FE
100
AcDbXrecord
 70
     0
  0
XRECORD
  5
302
102
{ACAD_REACTORS
330
2FE
102
}
330
2FE
100
AcDbXrecord
  1

  0
XRECORD
  5
2FF
102
{ACAD_REACTORS
330
2FE
102
}
330
2FE
100
AcDbXrecord
 90
        1
  0
XRECORD
  5
300
102
{ACAD_REACTORS
330
2FE
102
}
330
2FE
100
AcDbXrecord
 90
       70
  0
XRECORD
  5
317
102
{ACAD_REACTORS
330
2FE
102
}
330
2FE
100
AcDbXrecord
340
0
  0
XRECORD
  5
31D
102
{ACAD_REACTORS
330
2FE
102
}
330
2FE
100
AcDbXrecord
 10
0.0
 20
0.0
 30
0.0
  0
XRECORD
  5
319
102
{ACAD_REACTORS
330
2FE
102
}
330
2FE
100
AcDbXrecord
 10
0.0
 20
0.0
 30
0.0
  0
XRECORD
  5
31C
102
{ACAD_REACTORS
330
2FE
102
}
330
2FE
100
AcDbXrecord
 10
0.0
 20
0.0
 30
0.0
  0
XRECORD
  5
31A
102
{ACAD_REACTORS
330
2FE
102
}
330
2FE
100
AcDbXrecord
 10
0.0
 20
0.0
 30
0.0
  0
XRECORD
  5
31B
102
{ACAD_REACTORS
330
2FE
102
}
330
2FE
100
AcDbXrecord
 10
0.0
 20
0.0
 30
0.0
  0
XRECORD
  5
318
102
{ACAD_REACTORS
330
2FE
102
}
330
2FE
100
AcDbXrecord
 10
0.0
 20
0.0
 30
0.0
  0
XRECORD
  5
315
102
{ACAD_REACTORS
330
2FE
102
}
330
2FE
100
AcDbXrecord
340
0
  0
XRECORD
  5
316
102
{ACAD_REACTORS
330
2FE
102
}
330
2FE
100
AcDbXrecord
 70
     0
  0
XRECORD
  5
30A
102
{ACAD_REACTORS
330
2FE
102
}
330
2FE
100
AcDbXrecord
  1
{09B8EF0D-DF7F-4293-BEBC-1F46EE6E8881}
  0
DICTIONARYVAR
  5
201
102
{ACAD_REACTORS
330
200
102
}
330
200
100
DictionaryVariables
280
     0
  1
1
  0
ENDSEC
  0
EOF
