  0
SECTION
  2
HEADER
  9
$ACADVER
  1
AC1014
  9
$ACADMAINTVER
 70
     9
  9
$DWGCODEPAGE
  3
ANSI_1252
  9
$INSBASE
 10
5826.247144840287
 20
-671.352250061278
 30
0.0
  9
$EXTMIN
 10
7328.720202840115
 20
-229.110554619314
 30
0.0
  9
$EXTMAX
 10
7338.508796376951
 20
-226.34736225892
 30
0.0
  9
$LIMMIN
 10
0.0
 20
0.0
  9
$LIMMAX
 10
1728.0
 20
1152.0
  9
$ORTHOMODE
 70
     1
  9
$REGENMODE
 70
     1
  9
$FILLMODE
 70
     1
  9
$QTEXTMODE
 70
     0
  9
$MIRRTEXT
 70
     0
  9
$DRAGMODE
 70
     0
  9
$LTSCALE
 40
7.5
  9
$OSMODE
 70
    37
  9
$ATTMODE
 70
     1
  9
$TEXTSIZE
 40
5.0
  9
$TRACEWID
 40
0.05
  9
$TEXTSTYLE
  7
ARCHS
  9
$CLAYER
  8
0
  9
$CELTYPE
  6
BYLAYER
  9
$CECOLOR
 62
   256
  9
$CELTSCALE
 40
1.0
  9
$DELOBJ
 70
     1
  9
$DISPSILH
 70
     0
  9
$DIMSCALE
 40
1.0
  9
$DIMASZ
 40
4.0
  9
$DIMEXO
 40
4.0
  9
$DIMDLI
 40
0.0
  9
$DIMRND
 40
0.0
  9
$DIMDLE
 40
4.0
  9
$DIMEXE
 40
4.0
  9
$DIMTP
 40
0.0
  9
$DIMTM
 40
0.0
  9
$DIMTXT
 40
5.0
  9
$DIMCEN
 40
0.0625
  9
$DIMTSZ
 40
0.0
  9
$DIMTOL
 70
     0
  9
$DIMLIM
 70
     0
  9
$DIMTIH
 70
     0
  9
$DIMTOH
 70
     0
  9
$DIMSE1
 70
     0
  9
$DIMSE2
 70
     0
  9
$DIMTAD
 70
     1
  9
$DIMZIN
 70
     3
  9
$DIMBLK
  1

  9
$DIMASO
 70
     1
  9
$DIMSHO
 70
     1
  9
$DIMPOST
  1

  9
$DIMAPOST
  1

  9
$DIMALT
 70
     0
  9
$DIMALTD
 70
     2
  9
$DIMALTF
 40
25.4
  9
$DIMLFAC
 40
1.0
  9
$DIMTOFL
 70
     0
  9
$DIMTVP
 40
0.0
  9
$DIMTIX
 70
     0
  9
$DIMSOXD
 70
     0
  9
$DIMSAH
 70
     1
  9
$DIMBLK1
  1
ARCHTICK
  9
$DIMBLK2
  1
ARCHTICK
  9
$DIMSTYLE
  2
LORI
  9
$DIMCLRD
 70
     0
  9
$DIMCLRE
 70
     0
  9
$DIMCLRT
 70
     0
  9
$DIMTFAC
 40
1.0
  9
$DIMGAP
 40
1.0
  9
$DIMJUST
 70
     0
  9
$DIMSD1
 70
     0
  9
$DIMSD2
 70
     0
  9
$DIMTOLJ
 70
     1
  9
$DIMTZIN
 70
     3
  9
$DIMALTZ
 70
     3
  9
$DIMALTTZ
 70
     3
  9
$DIMFIT
 70
     5
  9
$DIMUPT
 70
     0
  9
$DIMUNIT
 70
     6
  9
$DIMDEC
 70
     4
  9
$DIMTDEC
 70
     4
  9
$DIMALTU
 70
     4
  9
$DIMALTTD
 70
     2
  9
$DIMTXSTY
  7
ARCHS
  9
$DIMAUNIT
 70
     0
  9
$LUNITS
 70
     4
  9
$LUPREC
 70
     4
  9
$SKETCHINC
 40
0.1
  9
$FILLETRAD
 40
0.0
  9
$AUNITS
 70
     0
  9
$AUPREC
 70
     0
  9
$MENU
  1
ACAD
  9
$ELEVATION
 40
0.0
  9
$PELEVATION
 40
0.0
  9
$THICKNESS
 40
0.0
  9
$LIMCHECK
 70
     0
  9
$BLIPMODE
 70
     0
  9
$CHAMFERA
 40
4.0
  9
$CHAMFERB
 40
4.0
  9
$CHAMFERC
 40
0.0
  9
$CHAMFERD
 40
0.0
  9
$SKPOLY
 70
     0
  9
$TDCREATE
 40
2450873.520156481
  9
$TDUPDATE
 40
2452297.090124051
  9
$TDINDWG
 40
1.3079352431
  9
$TDUSRTIMER
 40
1.3079352431
  9
$USRTIMER
 70
     1
  9
$ANGBASE
 50
0.0
  9
$ANGDIR
 70
     0
  9
$PDMODE
 70
     0
  9
$PDSIZE
 40
0.6666666666666666
  9
$PLINEWID
 40
0.0
  9
$COORDS
 70
     2
  9
$SPLFRAME
 70
     0
  9
$SPLINETYPE
 70
     6
  9
$SPLINESEGS
 70
     8
  9
$ATTDIA
 70
     0
  9
$ATTREQ
 70
     1
  9
$HANDLING
 70
 22529
  9
$HANDSEED
  5
177C
  9
$SURFTAB1
 70
     6
  9
$SURFTAB2
 70
     6
  9
$SURFTYPE
 70
     6
  9
$SURFU
 70
     6
  9
$SURFV
 70
     6
  9
$UCSNAME
  2

  9
$UCSORG
 10
0.0
 20
0.0
 30
0.0
  9
$UCSXDIR
 10
1.0
 20
0.0
 30
0.0
  9
$UCSYDIR
 10
0.0
 20
1.0
 30
0.0
  9
$PUCSNAME
  2

  9
$PUCSORG
 10
0.0
 20
0.0
 30
0.0
  9
$PUCSXDIR
 10
1.0
 20
0.0
 30
0.0
  9
$PUCSYDIR
 10
0.0
 20
1.0
 30
0.0
  9
$USERI1
 70
     0
  9
$USERI2
 70
     0
  9
$USERI3
 70
     0
  9
$USERI4
 70
     0
  9
$USERI5
 70
     0
  9
$USERR1
 40
0.0
  9
$USERR2
 40
0.0
  9
$USERR3
 40
8.0
  9
$USERR4
 40
0.0
  9
$USERR5
 40
1528.0
  9
$WORLDVIEW
 70
     0
  9
$SHADEDGE
 70
     3
  9
$SHADEDIF
 70
    70
  9
$TILEMODE
 70
     1
  9
$MAXACTVP
 70
    16
  9
$PINSBASE
 10
0.0
 20
0.0
 30
0.0
  9
$PLIMCHECK
 70
     0
  9
$PEXTMIN
 10
1.000000000000000E+20
 20
1.000000000000000E+20
 30
1.000000000000000E+20
  9
$PEXTMAX
 10
-1.000000000000000E+20
 20
-1.000000000000000E+20
 30
-1.000000000000000E+20
  9
$PLIMMIN
 10
0.0
 20
0.0
  9
$PLIMMAX
 10
12.0
 20
9.0
  9
$UNITMODE
 70
     0
  9
$VISRETAIN
 70
     0
  9
$PLINEGEN
 70
     0
  9
$PSLTSCALE
 70
     0
  9
$TREEDEPTH
 70
  3020
  9
$PICKSTYLE
 70
     1
  9
$CMLSTYLE
  2
STANDARD
  9
$CMLJUST
 70
     0
  9
$CMLSCALE
 40
1.0
  9
$PROXYGRAPHICS
 70
     1
  9
$MEASUREMENT
 70
     0
  0
ENDSEC
  0
SECTION
  2
CLASSES
  0
CLASS
  1
DICTIONARYVAR
  2
AcDbDictionaryVar
  3
AutoCAD 2000
 90
        0
280
     0
281
     0
  0
CLASS
  1
LWPOLYLINE
  2
AcDbPolyline
  3
AutoCAD 2000
 90
        0
280
     0
281
     1
  0
CLASS
  1
HATCH
  2
AcDbHatch
  3
AutoCAD 2000
 90
        0
280
     0
281
     1
  0
CLASS
  1
ACDBDICTIONARYWDFLT
  2
AcDbDictionaryWithDefault
  3
AutoCAD 2000
 90
        0
280
     0
281
     0
  0
CLASS
  1
ACDBPLACEHOLDER
  2
AcDbPlaceHolder
  3
AutoCAD 2000
 90
        0
280
     0
281
     0
  0
CLASS
  1
LAYOUT
  2
AcDbLayout
  3
AutoCAD 2000
 90
        0
280
     0
281
     0
  0
CLASS
  1
LONG_TRANSACTION
  2
AcDbLongTransaction
  3
AutoCAD 2000
 90
        0
280
     0
281
     0
  0
CLASS
  1
LWPOLYLINE
  2
AcDbPolyline
  3
AutoCAD 2000
 90
        0
280
     0
281
     1
  0
CLASS
  1
HATCH
  2
AcDbHatch
  3
AutoCAD 2000
 90
        0
280
     0
281
     1
  0
CLASS
  1
XRECORD
  2
AcDbXrecord
  3
AutoCAD 2000
 90
        0
280
     0
281
     0
  0
CLASS
  1
LONG_TRANSACTION
  2
AcDbLongTransaction
  3
AutoCAD 2000
 90
        0
280
     0
281
     0
  0
CLASS
  1
LWPOLYLINE
  2
AcDbPolyline
  3
AutoCAD 2000
 90
        0
280
     0
281
     1
  0
CLASS
  1
HATCH
  2
AcDbHatch
  3
AutoCAD 2000
 90
        0
280
     0
281
     1
  0
CLASS
  1
XRECORD
  2
AcDbXrecord
  3
AutoCAD 2000
 90
        0
280
     0
281
     0
  0
CLASS
  1
LONG_TRANSACTION
  2
AcDbLongTransaction
  3
AutoCAD 2000
 90
        0
280
     0
281
     0
  0
CLASS
  1
LWPOLYLINE
  2
AcDbPolyline
  3
AutoCAD 2000
 90
        0
280
     0
281
     1
  0
CLASS
  1
HATCH
  2
AcDbHatch
  3
AutoCAD 2000
 90
        0
280
     0
281
     1
  0
CLASS
  1
XRECORD
  2
AcDbXrecord
  3
AutoCAD 2000
 90
        0
280
     0
281
     0
  0
CLASS
  1
LONG_TRANSACTION
  2
AcDbLongTransaction
  3
AutoCAD 2000
 90
        0
280
     0
281
     0
  0
CLASS
  1
LWPOLYLINE
  2
AcDbPolyline
  3
AutoCAD 2000
 90
        0
280
     0
281
     1
  0
CLASS
  1
HATCH
  2
AcDbHatch
  3
AutoCAD 2000
 90
        0
280
     0
281
     1
  0
CLASS
  1
XRECORD
  2
AcDbXrecord
  3
AutoCAD 2000
 90
        0
280
     0
281
     0
  0
CLASS
  1
LONG_TRANSACTION
  2
AcDbLongTransaction
  3
AutoCAD 2000
 90
        0
280
     0
281
     0
  0
CLASS
  1
LWPOLYLINE
  2
AcDbPolyline
  3
AutoCAD 2000
 90
        0
280
     0
281
     1
  0
CLASS
  1
HATCH
  2
AcDbHatch
  3
AutoCAD 2000
 90
        0
280
     0
281
     1
  0
CLASS
  1
XRECORD
  2
AcDbXrecord
  3
AutoCAD 2000
 90
        0
280
     0
281
     0
  0
ENDSEC
  0
SECTION
  2
TABLES
  0
TABLE
  2
VPORT
  5
13
330
0
100
AcDbSymbolTable
 70
     2
  0
VPORT
  5
1758
330
13
100
AcDbSymbolTableRecord
100
AcDbViewportTableRecord
  2
*ACTIVE
 70
     0
 10
0.0
 20
0.0
 11
1.0
 21
1.0
 12
7333.622399775717
 22
-227.728958439117
 13
0.0
 23
0.0
 14
2.0
 24
2.0
 15
0.0
 25
0.0
 16
0.0
 26
0.0
 36
1.0
 17
0.0
 27
0.0
 37
0.0
 40
6.272732743595978
 41
1.570528967254408
 42
50.0
 43
0.0
 44
0.0
 50
0.0
 51
0.0
 71
     0
 72
 10000
 73
     1
 74
     0
 75
     0
 76
     0
 77
     0
 78
     0
  0
ENDTAB
  0
TABLE
  2
LTYPE
  5
E
330
0
100
AcDbSymbolTable
 70
     1
  0
LTYPE
  5
F
330
E
100
AcDbSymbolTableRecord
100
AcDbLinetypeTableRecord
  2
BYBLOCK
 70
     0
  3

 72
    65
 73
     0
 40
0.0
  0
LTYPE
  5
10
330
E
100
AcDbSymbolTableRecord
100
AcDbLinetypeTableRecord
  2
BYLAYER
 70
     0
  3

 72
    65
 73
     0
 40
0.0
  0
LTYPE
  5
5
330
E
100
AcDbSymbolTableRecord
100
AcDbLinetypeTableRecord
  2
CONTINUOUS
 70
     0
  3
Solid line
 72
    65
 73
     0
 40
0.0
  0
ENDTAB
  0
TABLE
  2
LAYER
  5
A
330
0
100
AcDbSymbolTable
 70
     3
  0
LAYER
  5
4
330
A
100
AcDbSymbolTableRecord
100
AcDbLayerTableRecord
  2
0
 70
     0
 62
     7
  6
CONTINUOUS
  0
LAYER
  5
1B
330
A
100
AcDbSymbolTableRecord
100
AcDbLayerTableRecord
  2
ARNOTE
 70
     0
 62
     4
  6
CONTINUOUS
  0
LAYER
  5
12BC
330
A
100
AcDbSymbolTableRecord
100
AcDbLayerTableRecord
  2
ADPDIM
 70
     0
 62
     3
  6
CONTINUOUS
  0
ENDTAB
  0
TABLE
  2
STYLE
  5
B
330
0
100
AcDbSymbolTable
 70
     3
  0
STYLE
  5
C
330
B
100
AcDbSymbolTableRecord
100
AcDbTextStyleTableRecord
  2
STANDARD
 70
     0
 40
5.0
 41
1.199999999999999
 50
0.0
 71
     0
 42
5.0
  3
cityb___.ttf
  4

1001
ACAD
1000
CityBlueprint
1071
      514
  0
STYLE
  5
B18
330
B
100
AcDbSymbolTableRecord
100
AcDbTextStyleTableRecord
  2
ARCHS
 70
     0
 40
5.0
 41
0.8
 50
0.0
 71
     0
 42
5.0
  3
archs.shx
  4

  0
STYLE
  5
15DF
330
B
100
AcDbSymbolTableRecord
100
AcDbTextStyleTableRecord
  2
ARIAL_WIDE
 70
     0
 40
0.0
 41
1.25
 50
0.0
 71
     0
 42
0.2
  3
ARIAL.TTF
  4

1001
ACAD
1000
Arial
1071
       34
  0
ENDTAB
  0
TABLE
  2
VIEW
  5
11
330
0
100
AcDbSymbolTable
 70
     0
  0
ENDTAB
  0
TABLE
  2
UCS
  5
12
330
0
100
AcDbSymbolTable
 70
     0
  0
ENDTAB
  0
TABLE
  2
APPID
  5
15
330
0
100
AcDbSymbolTable
 70
     3
  0
APPID
  5
D
330
15
100
AcDbSymbolTableRecord
100
AcDbRegAppTableRecord
  2
ACAD
 70
     0
  0
APPID
  5
C0E
330
15
100
AcDbSymbolTableRecord
100
AcDbRegAppTableRecord
  2
CONTENTTABDATA
 70
     0
  0
APPID
  5
C0F
330
15
100
AcDbSymbolTableRecord
100
AcDbRegAppTableRecord
  2
CONTENTCURRENTTAB
 70
     0
  0
ENDTAB
  0
TABLE
  2
DIMSTYLE
  5
16
330
0
100
AcDbSymbolTable
 70
     1
  0
DIMSTYLE
105
1D
330
16
100
AcDbSymbolTableRecord
100
AcDbDimStyleTableRecord
  2
LORI
 70
     0
  3

  4

  5

  6
ARCHTICK
  7
ARCHTICK
 40
1.0
 41
4.0
 42
4.0
 43
0.0
 44
4.0
 45
0.0
 46
4.0
 47
0.0
 48
0.0
140
5.0
141
0.0625
142
0.0
143
25.4
144
1.0
145
0.0
146
1.0
147
1.0
 71
     0
 72
     0
 73
     0
 74
     0
 75
     0
 76
     0
 77
     1
 78
     3
170
     0
171
     2
172
     0
173
     1
174
     0
175
     0
176
     0
177
     0
178
     0
270
     6
271
     4
272
     4
273
     4
274
     2
340
B18
275
     0
280
     0
281
     0
282
     0
283
     1
284
     3
285
     3
286
     3
287
     5
288
     0
  0
ENDTAB
  0
TABLE
  2
BLOCK_RECORD
  5
1
330
0
100
AcDbSymbolTable
 70
     1
  0
BLOCK_RECORD
  5
2
102
{ACAD_XDICTIONARY
360
1634
102
}
330
1
100
AcDbSymbolTableRecord
100
AcDbBlockTableRecord
  2
*MODEL_SPACE
  0
BLOCK_RECORD
  5
7
102
{ACAD_XDICTIONARY
360
1636
102
}
330
1
100
AcDbSymbolTableRecord
100
AcDbBlockTableRecord
  2
*PAPER_SPACE
  0
BLOCK_RECORD
  5
1E
330
1
100
AcDbSymbolTableRecord
100
AcDbBlockTableRecord
  2
_ARCHTICK
  0
ENDTAB
  0
ENDSEC
  0
SECTION
  2
BLOCKS
  0
BLOCK
  5
3
330
2
100
AcDbEntity
  8
0
100
AcDbBlockBegin
  2
*MODEL_SPACE
 70
     2
 10
0.0
 20
0.0
 30
0.0
  3
*MODEL_SPACE
  1

  0
ENDBLK
  5
6
330
2
100
AcDbEntity
  8
0
100
AcDbBlockEnd
  0
BLOCK
  5
8
330
7
100
AcDbEntity
 67
     1
  8
0
100
AcDbBlockBegin
  2
*PAPER_SPACE
 70
     0
 10
0.0
 20
0.0
 30
0.0
  3
*PAPER_SPACE
  1

  0
ENDBLK
  5
9
330
7
100
AcDbEntity
 67
     1
  8
0
100
AcDbBlockEnd
  0
BLOCK
  5
23
330
1E
100
AcDbEntity
  8
0
100
AcDbBlockBegin
  2
_ARCHTICK
 70
     0
 10
0.0
 20
0.0
 30
0.0
  3
_ARCHTICK
  1

  0
LWPOLYLINE
  5
1F
330
1E
100
AcDbEntity
  8
0
  6
BYBLOCK
 62
     0
100
AcDbPolyline
 90
        2
 70
     0
 43
0.15
 10
-0.5
 20
-0.5
 10
0.5
 20
0.5
  0
ENDBLK
  5
24
330
1E
100
AcDbEntity
  8
0
100
AcDbBlockEnd
  0
ENDSEC
  0
SECTION
  2
ENTITIES
  0
TEXT
  5
911
330
2
100
AcDbEntity
  8
ARNOTE
 48
0.25
100
AcDbText
 10
6797.355681886982
 20
320.6227969266074
 30
0.0
 40
5.0
  1

 41
1.199999999999999
100
AcDbText
  0
TEXT
  5
914
330
2
100
AcDbEntity
  8
ARNOTE
 48
0.25
100
AcDbText
 10
6797.355681886982
 20
296.7498205878775
 30
0.0
 40
5.0
  1

 41
1.199999999999999
100
AcDbText
  0
TEXT
  5
9C1
330
2
100
AcDbEntity
  8
ARNOTE
 48
0.25
100
AcDbText
 10
5924.352917162863
 20
189.567089263825
 30
0.0
 40
5.0
  1

 41
1.199999999999999
100
AcDbText
  0
TEXT
  5
15E0
330
2
100
AcDbEntity
  8
ADPDIM
100
AcDbText
 10
7328.720202840115
 20
-229.0828005265445
 30
0.0
 40
0.09375
  1
J U L I U S  B L U M  &  C O . ,  I N C .      ( 8 0 0 )  5 2 6 - 6 2 9 3        W W W . J U L I U S B L U M . C O M        P A R T  N o .  5 2 8 8
 41
1.25
  7
ARIAL_WIDE
 72
     1
 11
7333.614499608533
 21
-228.9890505265446
 31
0.0
100
AcDbText
 73
     3
  0
ARC
  5
166F
330
2
100
AcDbEntity
  8
ADPDIM
100
AcDbCircle
 10
7334.509496884694
 20
-227.203075971242
 30
0.0
 40
0.0100000000002183
100
AcDbArc
 50
0.0
 51
180.0
  0
ARC
  5
1670
330
2
100
AcDbEntity
  8
ADPDIM
100
AcDbCircle
 10
7334.509496884694
 20
-227.203075971242
 30
0.0
 40
0.0100000000002183
100
AcDbArc
 50
180.0
 51
0.0
  0
ARC
  5
1671
330
2
100
AcDbEntity
  8
ADPDIM
100
AcDbCircle
 10
7334.436846394656
 20
-227.2757264612785
 30
0.0
 40
0.0100000000002183
100
AcDbArc
 50
0.0
 51
180.0
  0
ARC
  5
1672
330
2
100
AcDbEntity
  8
ADPDIM
100
AcDbCircle
 10
7334.436846394656
 20
-227.2757264612785
 30
0.0
 40
0.0100000000002183
100
AcDbArc
 50
180.0
 51
0.0
  0
ARC
  5
1673
330
2
100
AcDbEntity
  8
ADPDIM
100
AcDbCircle
 10
7332.383944951153
 20
-227.648720893818
 30
0.0
 40
0.0124999999998181
100
AcDbArc
 50
90.0
 51
270.0
  0
ARC
  5
1674
330
2
100
AcDbEntity
  8
ADPDIM
100
AcDbCircle
 10
7332.383944951153
 20
-227.648720893818
 30
0.0
 40
0.0124999999998181
100
AcDbArc
 50
270.0
 51
90.0
  0
ARC
  5
1675
330
2
100
AcDbEntity
  8
ADPDIM
100
AcDbCircle
 10
7332.383944951153
 20
-227.1591375604832
 30
0.0
 40
0.0124999999998181
100
AcDbArc
 50
90.0
 51
270.0
  0
ARC
  5
1676
330
2
100
AcDbEntity
  8
ADPDIM
100
AcDbCircle
 10
7332.383944951153
 20
-227.1591375604832
 30
0.0
 40
0.0124999999998181
100
AcDbArc
 50
270.0
 51
90.0
  0
ARC
  5
1677
330
2
100
AcDbEntity
  8
ADPDIM
100
AcDbCircle
 10
7334.614499608534
 20
-228.3748760721635
 30
0.0
 40
0.0124999999998181
100
AcDbArc
 50
0.0
 51
180.0
  0
ARC
  5
1678
330
2
100
AcDbEntity
  8
ADPDIM
100
AcDbCircle
 10
7334.614499608534
 20
-228.3748760721635
 30
0.0
 40
0.0124999999998181
100
AcDbArc
 50
180.0
 51
0.0
  0
ARC
  5
1679
330
2
100
AcDbEntity
  8
ADPDIM
100
AcDbCircle
 10
7332.614499608535
 20
-228.374876072164
 30
0.0
 40
0.0124999999998181
100
AcDbArc
 50
0.0
 51
180.0
  0
ARC
  5
167A
330
2
100
AcDbEntity
  8
ADPDIM
100
AcDbCircle
 10
7332.614499608535
 20
-228.374876072164
 30
0.0
 40
0.0124999999998181
100
AcDbArc
 50
180.0
 51
0.0
  0
ARC
  5
167B
330
2
100
AcDbEntity
  8
0
100
AcDbCircle
 10
7332.859499608535
 20
-227.4141375604832
 30
0.0
 40
0.2449999999999477
100
AcDbArc
 50
179.9999999999934
 51
270.0
  0
LINE
  5
167C
330
2
100
AcDbEntity
  8
0
100
AcDbLine
 10
7334.369499608533
 20
-227.6591375604831
 30
0.0
 11
7332.859499608535
 21
-227.6591375604831
 31
0.0
  0
ARC
  5
167D
330
2
100
AcDbEntity
  8
0
100
AcDbCircle
 10
7334.369499608534
 20
-227.4141375604827
 30
0.0
 40
0.2449999999998909
100
AcDbArc
 50
269.9999999997915
 51
359.9999999999006
  0
LINE
  5
167E
330
2
100
AcDbEntity
  8
0
100
AcDbLine
 10
7334.614499608534
 20
-227.4041375604832
 30
0.0
 11
7334.614499608534
 21
-227.4141375604832
 31
0.0
  0
ARC
  5
167F
330
2
100
AcDbEntity
  8
0
100
AcDbCircle
 10
7334.369499608534
 20
-227.4041375604836
 30
0.0
 40
0.2450000000004024
100
AcDbArc
 50
0.0000000000928213
 51
90.00000000020843
  0
LINE
  5
1680
330
2
100
AcDbEntity
  8
0
100
AcDbLine
 10
7332.859499608535
 20
-227.1591375604832
 30
0.0
 11
7334.369499608533
 21
-227.1591375604832
 31
0.0
  0
ARC
  5
1681
330
2
100
AcDbEntity
  8
0
100
AcDbCircle
 10
7332.859499608535
 20
-227.4041375604831
 30
0.0
 40
0.2449999999998909
100
AcDbArc
 50
90.0
 51
180.000000000013
  0
LINE
  5
1682
330
2
100
AcDbEntity
  8
0
100
AcDbLine
 10
7332.614499608535
 20
-227.4141375604832
 30
0.0
 11
7332.614499608535
 21
-227.4041375604832
 31
0.0
  0
ARC
  5
1683
330
2
100
AcDbEntity
  8
0
100
AcDbCircle
 10
7332.859499608535
 20
-227.414137560483
 30
0.0
 40
0.1450000000002092
100
AcDbArc
 50
180.0000000000895
 51
270.0
  0
LINE
  5
1684
330
2
100
AcDbEntity
  8
0
100
AcDbLine
 10
7334.369499608533
 20
-227.5591375604832
 30
0.0
 11
7332.859499608535
 21
-227.5591375604832
 31
0.0
  0
ARC
  5
1685
330
2
100
AcDbEntity
  8
0
100
AcDbCircle
 10
7334.369499608533
 20
-227.414137560483
 30
0.0
 40
0.1450000000004366
100
AcDbArc
 50
270.0
 51
359.9999999999104
  0
LINE
  5
1686
330
2
100
AcDbEntity
  8
0
100
AcDbLine
 10
7334.514499608534
 20
-227.4041375604832
 30
0.0
 11
7334.514499608534
 21
-227.4141375604832
 31
0.0
  0
ARC
  5
1687
330
2
100
AcDbEntity
  8
0
100
AcDbCircle
 10
7334.369499608533
 20
-227.4041375604834
 30
0.0
 40
0.1450000000002376
100
AcDbArc
 50
0.0000000000895644
 51
90.0
  0
LINE
  5
1688
330
2
100
AcDbEntity
  8
0
100
AcDbLine
 10
7332.859499608535
 20
-227.2591375604831
 30
0.0
 11
7334.369499608533
 21
-227.2591375604831
 31
0.0
  0
ARC
  5
1689
330
2
100
AcDbEntity
  8
0
100
AcDbCircle
 10
7332.859499608535
 20
-227.4041375604834
 30
0.0
 40
0.1450000000004366
100
AcDbArc
 50
90.0
 51
179.9999999999104
  0
LINE
  5
168A
330
2
100
AcDbEntity
  8
0
100
AcDbLine
 10
7332.714499608534
 20
-227.4141375604832
 30
0.0
 11
7332.714499608534
 21
-227.4041375604832
 31
0.0
  0
LINE
  5
168B
330
2
100
AcDbEntity
  8
ADPDIM
100
AcDbLine
 10
7332.614499608535
 20
-228.4524223636194
 30
0.0
 11
7332.614499608535
 21
-227.5614860452877
 31
0.0
  0
LINE
  5
168C
330
2
100
AcDbEntity
  8
ADPDIM
100
AcDbLine
 10
7334.614499608534
 20
-228.452422363619
 30
0.0
 11
7334.614499608534
 21
-227.5614860452872
 31
0.0
  0
LINE
  5
168D
330
2
100
AcDbEntity
  8
ADPDIM
100
AcDbLine
 10
7332.614499608535
 20
-228.374876072164
 30
0.0
 11
7334.601999608534
 21
-228.374876072164
 31
0.0
  0
TEXT
  5
168E
330
2
100
AcDbEntity
  8
ADPDIM
100
AcDbText
 10
7333.479957318546
 20
-228.244042033014
 30
0.0
 40
0.25
  1
2
 41
0.8
  7
ARCHS
100
AcDbText
  0
TEXT
  5
168F
330
2
100
AcDbEntity
  8
ADPDIM
100
AcDbText
 10
7333.675954453761
 20
-228.234040046484
 30
0.0
 40
0.25
  1
"
 41
0.8
  7
ARCHS
100
AcDbText
  0
LINE
  5
1690
330
2
100
AcDbEntity
  8
ADPDIM
100
AcDbLine
 10
7332.383944951153
 20
-227.648720893818
 30
0.0
 11
7332.383944951153
 21
-227.148720893818
 31
0.0
  0
POINT
  5
1691
330
2
100
AcDbEntity
  8
ADPDIM
100
AcDbPoint
 10
7332.383944951153
 20
-227.148720893818
 30
0.0
  0
LINE
  5
1692
330
2
100
AcDbEntity
  8
ADPDIM
100
AcDbLine
 10
7332.383944951153
 20
-227.148720893818
 30
0.0
 11
7332.383944951153
 21
-227.1466375604834
 31
0.0
  0
LINE
  5
1693
330
2
100
AcDbEntity
  8
ADPDIM
100
AcDbLine
 10
7332.689974513343
 20
-227.1591375604832
 30
0.0
 11
7332.045344390142
 21
-227.1591375604832
 31
0.0
  0
LINE
  5
1694
330
2
100
AcDbEntity
  8
ADPDIM
100
AcDbLine
 10
7332.689974513343
 20
-227.648720893818
 30
0.0
 11
7332.045344390142
 21
-227.648720893818
 31
0.0
  0
TEXT
  5
1695
330
2
100
AcDbEntity
  8
ADPDIM
100
AcDbText
 10
7332.317006926451
 20
-227.4151249951116
 30
0.0
 40
0.140625
  1
2
 50
90.0
 41
0.8
  7
ARCHS
100
AcDbText
  0
TEXT
  5
1696
330
2
100
AcDbEntity
  8
ADPDIM
100
AcDbText
 10
7332.20353074383
 20
-227.5638033637052
 30
0.0
 40
0.140625
  1
1
 50
90.0
 41
0.8
  7
ARCHS
100
AcDbText
  0
LINE
  5
1697
330
2
100
AcDbEntity
  8
ADPDIM
100
AcDbLine
 10
7332.358935798854
 20
-227.5426020263641
 30
0.0
 11
7332.046740162631
 21
-227.3623557917509
 31
0.0
  0
TEXT
  5
1698
330
2
100
AcDbEntity
  8
ADPDIM
100
AcDbText
 10
7332.311380809027
 20
-227.3048766065525
 30
0.0
 40
0.140625
  1
"
 50
90.0
 41
0.8
  7
ARCHS
100
AcDbText
  0
LINE
  5
1699
330
2
100
AcDbEntity
  8
ADPDIM
100
AcDbLine
 10
7334.443917462468
 20
-227.2686553934665
 30
0.0
 11
7334.33206273337
 21
-227.3805101225653
 31
0.0
  0
TEXT
  5
169A
330
2
100
AcDbEntity
  8
ADPDIM
100
AcDbText
 10
7334.570789796065
 20
-227.0494182773838
 30
0.0
 40
0.25
  1
.100"
 50
44.99999999999539
 41
0.8
  7
ARCHS
100
AcDbText
  0
LINE
  5
169B
330
2
100
AcDbEntity
  8
ADPDIM
100
AcDbLine
 10
7335.167182368699
 20
-226.5453904872367
 30
0.0
 11
7334.502425816882
 21
-227.2101470390538
 31
0.0
  0
ENDSEC
  0
SECTION
  2
OBJECTS
  0
DICTIONARY
  5
1A
330
0
100
AcDbDictionary
  3
ACAD_GROUP
350
18
  3
ACAD_LAYOUT
350
15D7
  3
ACAD_MLINESTYLE
350
19
  3
ACAD_PLOTSETTINGS
350
15D8
  3
ACAD_PLOTSTYLENAME
350
15D5
  3
ACDBHEADERROUNDTRIPXREC
350
1759
  3
ACDBVARIABLEDICTIONARY
350
163C
  3
CONTENTDICTIONARY
350
C0D
  0
DICTIONARY
  5
1634
330
2
100
AcDbDictionary
280
     1
  3
ACAD_LAYOUTSELFREF
360
177A
  0
DICTIONARY
  5
1636
330
7
100
AcDbDictionary
280
     1
  3
ACAD_LAYOUTSELFREF
360
177B
  0
DICTIONARY
  5
18
102
{ACAD_REACTORS
330
1A
102
}
330
1A
100
AcDbDictionary
  0
DICTIONARY
  5
15D7
102
{ACAD_REACTORS
330
1A
102
}
330
1A
100
AcDbDictionary
  0
DICTIONARY
  5
19
102
{ACAD_REACTORS
330
1A
102
}
330
1A
100
AcDbDictionary
  3
STANDARD
350
1C
  0
DICTIONARY
  5
15D8
102
{ACAD_REACTORS
330
1A
102
}
330
1A
100
AcDbDictionary
  0
ACDBDICTIONARYWDFLT
  5
15D5
102
{ACAD_REACTORS
330
1A
102
}
330
1A
100
AcDbDictionary
281
     1
  3
Normal
350
15D6
100
AcDbDictionaryWithDefault
340
15D6
  0
DICTIONARY
  5
1759
102
{ACAD_REACTORS
330
1A
102
}
330
1A
100
AcDbDictionary
  3
CEPSNTYPE
350
1763
  3
DIMSTYLEDATA
350
1767
  3
FINGERPRINTGUID
350
1764
  3
HYPERLINKBASE
350
175C
  3
INSUNITS
350
1762
  3
LAYOUTDICT
350
175E
  3
LWETCUNION
350
1761
  3
PLOTSETDICT
350
175F
  3
PLOTSTYLNAMDICT
350
1760
  3
PSVPSCALE
350
1766
  3
PUCSBASE
350
176A
  3
PUCSORGBACK
350
1770
  3
PUCSORGBOTTOM
350
176C
  3
PUCSORGFRONT
350
176F
  3
PUCSORGLEFT
350
176D
  3
PUCSORGRIGHT
350
176E
  3
PUCSORGTOP
350
176B
  3
PUCSORTHOREF
350
1768
  3
PUCSORTHOVIEW
350
1769
  3
STYLESHEET
350
175D
  3
TSTACKALIGN
350
175A
  3
TSTACKSIZE
350
175B
  3
UCSBASE
350
1773
  3
UCSORGBACK
350
1779
  3
UCSORGBOTTOM
350
1775
  3
UCSORGFRONT
350
1778
  3
UCSORGLEFT
350
1776
  3
UCSORGRIGHT
350
1777
  3
UCSORGTOP
350
1774
  3
UCSORTHOREF
350
1771
  3
UCSORTHOVIEW
350
1772
  3
VERSIONGUID
350
1765
  0
DICTIONARY
  5
163C
102
{ACAD_REACTORS
330
1A
102
}
330
1A
100
AcDbDictionary
  3
DIMASSOC
350
163D
  0
DICTIONARY
  5
C0D
102
{ACAD_REACTORS
330
1A
102
}
330
1A
100
AcDbDictionary
  0
XRECORD
  5
177A
102
{ACAD_REACTORS
330
1634
102
}
330
1634
100
AcDbXrecord
340
2
  0
XRECORD
  5
177B
102
{ACAD_REACTORS
330
1636
102
}
330
1636
100
AcDbXrecord
340
7
  0
MLINESTYLE
  5
1C
102
{ACAD_REACTORS
330
19
102
}
330
19
100
AcDbMlineStyle
  2
STANDARD
 70
     0
  3

 62
   256
 51
90.0
 52
90.0
 71
     2
 49
0.5
 62
   256
  6
BYLAYER
 49
-0.5
 62
   256
  6
BYLAYER
  0
ACDBPLACEHOLDER
  5
15D6
102
{ACAD_REACTORS
330
15D5
102
}
330
15D5
100
AcDbPlaceHolder
280
     0
  0
XRECORD
  5
1763
102
{ACAD_REACTORS
330
1759
102
}
330
1759
100
AcDbXrecord
 90
        0
  0
XRECORD
  5
1767
102
{ACAD_REACTORS
330
1759
102
}
330
1759
100
AcDbXrecord
1000
DSTYLE
1002
{
1070
   276
 70
     2
1070
   277
 70
     4
1070
   279
 70
     2
1070
   341
340
1E
1070
   343
340
1E
1070
   344
340
1E
1002
}
  0
XRECORD
  5
1764
102
{ACAD_REACTORS
330
1759
102
}
330
1759
100
AcDbXrecord
  1
{8DF66D8D-4031-41DD-B720-0A6A2C33F104}
  0
XRECORD
  5
175C
102
{ACAD_REACTORS
330
1759
102
}
330
1759
100
AcDbXrecord
  1

  0
XRECORD
  5
1762
102
{ACAD_REACTORS
330
1759
102
}
330
1759
100
AcDbXrecord
 90
        0
  0
XRECORD
  5
175E
102
{ACAD_REACTORS
330
1759
102
}
330
1759
100
AcDbXrecord
340
15D7
  0
XRECORD
  5
1761
102
{ACAD_REACTORS
330
1759
102
}
330
1759
100
AcDbXrecord
 90
    14877
  0
XRECORD
  5
175F
102
{ACAD_REACTORS
330
1759
102
}
330
1759
100
AcDbXrecord
340
15D8
  0
XRECORD
  5
1760
102
{ACAD_REACTORS
330
1759
102
}
330
1759
100
AcDbXrecord
340
15D5
  0
XRECORD
  5
1766
102
{ACAD_REACTORS
330
1759
102
}
330
1759
100
AcDbXrecord
 40
0.0
  0
XRECORD
  5
176A
102
{ACAD_REACTORS
330
1759
102
}
330
1759
100
AcDbXrecord
340
0
  0
XRECORD
  5
1770
102
{ACAD_REACTORS
330
1759
102
}
330
1759
100
AcDbXrecord
 10
0.0
 20
0.0
 30
0.0
  0
XRECORD
  5
176C
102
{ACAD_REACTORS
330
1759
102
}
330
1759
100
AcDbXrecord
 10
0.0
 20
0.0
 30
0.0
  0
XRECORD
  5
176F
102
{ACAD_REACTORS
330
1759
102
}
330
1759
100
AcDbXrecord
 10
0.0
 20
0.0
 30
0.0
  0
XRECORD
  5
176D
102
{ACAD_REACTORS
330
1759
102
}
330
1759
100
AcDbXrecord
 10
0.0
 20
0.0
 30
0.0
  0
XRECORD
  5
176E
102
{ACAD_REACTORS
330
1759
102
}
330
1759
100
AcDbXrecord
 10
0.0
 20
0.0
 30
0.0
  0
XRECORD
  5
176B
102
{ACAD_REACTORS
330
1759
102
}
330
1759
100
AcDbXrecord
 10
0.0
 20
0.0
 30
0.0
  0
XRECORD
  5
1768
102
{ACAD_REACTORS
330
1759
102
}
330
1759
100
AcDbXrecord
340
0
  0
XRECORD
  5
1769
102
{ACAD_REACTORS
330
1759
102
}
330
1759
100
AcDbXrecord
 70
     0
  0
XRECORD
  5
175D
102
{ACAD_REACTORS
330
1759
102
}
330
1759
100
AcDbXrecord
  1

  0
XRECORD
  5
175A
102
{ACAD_REACTORS
330
1759
102
}
330
1759
100
AcDbXrecord
 90
        1
  0
XRECORD
  5
175B
102
{ACAD_REACTORS
330
1759
102
}
330
1759
100
AcDbXrecord
 90
       70
  0
XRECORD
  5
1773
102
{ACAD_REACTORS
330
1759
102
}
330
1759
100
AcDbXrecord
340
0
  0
XRECORD
  5
1779
102
{ACAD_REACTORS
330
1759
102
}
330
1759
100
AcDbXrecord
 10
0.0
 20
0.0
 30
0.0
  0
XRECORD
  5
1775
102
{ACAD_REACTORS
330
1759
102
}
330
1759
100
AcDbXrecord
 10
0.0
 20
0.0
 30
0.0
  0
XRECORD
  5
1778
102
{ACAD_REACTORS
330
1759
102
}
330
1759
100
AcDbXrecord
 10
0.0
 20
0.0
 30
0.0
  0
XRECORD
  5
1776
102
{ACAD_REACTORS
330
1759
102
}
330
1759
100
AcDbXrecord
 10
0.0
 20
0.0
 30
0.0
  0
XRECORD
  5
1777
102
{ACAD_REACTORS
330
1759
102
}
330
1759
100
AcDbXrecord
 10
0.0
 20
0.0
 30
0.0
  0
XRECORD
  5
1774
102
{ACAD_REACTORS
330
1759
102
}
330
1759
100
AcDbXrecord
 10
0.0
 20
0.0
 30
0.0
  0
XRECORD
  5
1771
102
{ACAD_REACTORS
330
1759
102
}
330
1759
100
AcDbXrecord
340
0
  0
XRECORD
  5
1772
102
{ACAD_REACTORS
330
1759
102
}
330
1759
100
AcDbXrecord
 70
     0
  0
XRECORD
  5
1765
102
{ACAD_REACTORS
330
1759
102
}
330
1759
100
AcDbXrecord
  1
{4A4AC571-7567-4217-A2BB-BC49A7F018E0}
  0
DICTIONARYVAR
  5
163D
102
{ACAD_REACTORS
330
163C
102
}
330
163C
100
DictionaryVariables
280
     0
  1
1
  0
ENDSEC
  0
EOF
