  0
SECTION
  2
HEADER
  9
$ACADVER
  1
AC1014
  9
$ACADMAINTVER
 70
     9
  9
$DWGCODEPAGE
  3
ANSI_1252
  9
$INSBASE
 10
0.0
 20
0.0
 30
0.0
  9
$EXTMIN
 10
5.048547106366166
 20
2.654259870447643
 30
0.0
  9
$EXTMAX
 10
14.70060841264174
 20
6.292208675534501
 30
0.0
  9
$LIMMIN
 10
0.0
 20
0.0
  9
$LIMMAX
 10
0.0
 20
0.0
  9
$ORTHOMODE
 70
     0
  9
$REGENMODE
 70
     1
  9
$FILLMODE
 70
     1
  9
$QTEXTMODE
 70
     0
  9
$MIRRTEXT
 70
     1
  9
$DRAGMODE
 70
     0
  9
$LTSCALE
 40
1.0
  9
$OSMODE
 70
    37
  9
$ATTMODE
 70
     1
  9
$TEXTSIZE
 40
0.0
  9
$TRACEWID
 40
0.05
  9
$TEXTSTYLE
  7
STANDARD
  9
$CLAYER
  8
0
  9
$CELTYPE
  6
CONTINUOUS
  9
$CECOLOR
 62
   256
  9
$CELTSCALE
 40
1.0
  9
$DELOBJ
 70
     1
  9
$DISPSILH
 70
     0
  9
$DIMSCALE
 40
1.0
  9
$DIMASZ
 40
0.18
  9
$DIMEXO
 40
0.0625
  9
$DIMDLI
 40
0.38
  9
$DIMRND
 40
0.0
  9
$DIMDLE
 40
0.0
  9
$DIMEXE
 40
0.18
  9
$DIMTP
 40
0.0
  9
$DIMTM
 40
0.0
  9
$DIMTXT
 40
0.18
  9
$DIMCEN
 40
0.09
  9
$DIMTSZ
 40
0.0
  9
$DIMTOL
 70
     0
  9
$DIMLIM
 70
     0
  9
$DIMTIH
 70
     1
  9
$DIMTOH
 70
     1
  9
$DIMSE1
 70
     0
  9
$DIMSE2
 70
     0
  9
$DIMTAD
 70
     0
  9
$DIMZIN
 70
     0
  9
$DIMBLK
  1

  9
$DIMASO
 70
     1
  9
$DIMSHO
 70
     1
  9
$DIMPOST
  1

  9
$DIMAPOST
  1

  9
$DIMALT
 70
     0
  9
$DIMALTD
 70
     2
  9
$DIMALTF
 40
25.4
  9
$DIMLFAC
 40
1.0
  9
$DIMTOFL
 70
     0
  9
$DIMTVP
 40
0.0
  9
$DIMTIX
 70
     0
  9
$DIMSOXD
 70
     0
  9
$DIMSAH
 70
     0
  9
$DIMBLK1
  1

  9
$DIMBLK2
  1

  9
$DIMSTYLE
  2
STANDARD
  9
$DIMCLRD
 70
     0
  9
$DIMCLRE
 70
     0
  9
$DIMCLRT
 70
     0
  9
$DIMTFAC
 40
1.0
  9
$DIMGAP
 40
0.09
  9
$DIMJUST
 70
     0
  9
$DIMSD1
 70
     0
  9
$DIMSD2
 70
     0
  9
$DIMTOLJ
 70
     1
  9
$DIMTZIN
 70
     0
  9
$DIMALTZ
 70
     0
  9
$DIMALTTZ
 70
     0
  9
$DIMFIT
 70
     3
  9
$DIMUPT
 70
     0
  9
$DIMUNIT
 70
     2
  9
$DIMDEC
 70
     4
  9
$DIMTDEC
 70
     4
  9
$DIMALTU
 70
     2
  9
$DIMALTTD
 70
     2
  9
$DIMTXSTY
  7
STANDARD
  9
$DIMAUNIT
 70
     0
  9
$LUNITS
 70
     2
  9
$LUPREC
 70
     4
  9
$SKETCHINC
 40
0.1
  9
$FILLETRAD
 40
0.0
  9
$AUNITS
 70
     0
  9
$AUPREC
 70
     0
  9
$MENU
  1
acad
  9
$ELEVATION
 40
0.0
  9
$PELEVATION
 40
0.0
  9
$THICKNESS
 40
0.0
  9
$LIMCHECK
 70
     0
  9
$BLIPMODE
 70
     0
  9
$CHAMFERA
 40
0.0
  9
$CHAMFERB
 40
0.0
  9
$CHAMFERC
 40
0.0
  9
$CHAMFERD
 40
0.0
  9
$SKPOLY
 70
     0
  9
$TDCREATE
 40
2444971.791666666
  9
$TDUPDATE
 40
2452297.071379479
  9
$TDINDWG
 40
0.0177258796
  9
$TDUSRTIMER
 40
0.0177258796
  9
$USRTIMER
 70
     1
  9
$ANGBASE
 50
0.0
  9
$ANGDIR
 70
     0
  9
$PDMODE
 70
     0
  9
$PDSIZE
 40
0.0
  9
$PLINEWID
 40
0.0
  9
$COORDS
 70
     2
  9
$SPLFRAME
 70
     0
  9
$SPLINETYPE
 70
     6
  9
$SPLINESEGS
 70
     8
  9
$ATTDIA
 70
     0
  9
$ATTREQ
 70
     1
  9
$HANDLING
 70
 22529
  9
$HANDSEED
  5
283
  9
$SURFTAB1
 70
     6
  9
$SURFTAB2
 70
     6
  9
$SURFTYPE
 70
     6
  9
$SURFU
 70
     6
  9
$SURFV
 70
     6
  9
$UCSNAME
  2

  9
$UCSORG
 10
0.0
 20
0.0
 30
0.0
  9
$UCSXDIR
 10
1.0
 20
0.0
 30
0.0
  9
$UCSYDIR
 10
0.0
 20
1.0
 30
0.0
  9
$PUCSNAME
  2

  9
$PUCSORG
 10
0.0
 20
0.0
 30
0.0
  9
$PUCSXDIR
 10
1.0
 20
0.0
 30
0.0
  9
$PUCSYDIR
 10
0.0
 20
1.0
 30
0.0
  9
$USERI1
 70
     0
  9
$USERI2
 70
     0
  9
$USERI3
 70
     0
  9
$USERI4
 70
     0
  9
$USERI5
 70
     0
  9
$USERR1
 40
0.0
  9
$USERR2
 40
0.0
  9
$USERR3
 40
0.0
  9
$USERR4
 40
0.0
  9
$USERR5
 40
0.0
  9
$WORLDVIEW
 70
     1
  9
$SHADEDGE
 70
     3
  9
$SHADEDIF
 70
    70
  9
$TILEMODE
 70
     1
  9
$MAXACTVP
 70
    16
  9
$PINSBASE
 10
0.0
 20
0.0
 30
0.0
  9
$PLIMCHECK
 70
     0
  9
$PEXTMIN
 10
1.000000000000000E+20
 20
1.000000000000000E+20
 30
1.000000000000000E+20
  9
$PEXTMAX
 10
-1.000000000000000E+20
 20
-1.000000000000000E+20
 30
-1.000000000000000E+20
  9
$PLIMMIN
 10
0.0
 20
0.0
  9
$PLIMMAX
 10
12.0
 20
9.0
  9
$UNITMODE
 70
     0
  9
$VISRETAIN
 70
     0
  9
$PLINEGEN
 70
     0
  9
$PSLTSCALE
 70
     0
  9
$TREEDEPTH
 70
  3020
  9
$PICKSTYLE
 70
     1
  9
$CMLSTYLE
  2
STANDARD
  9
$CMLJUST
 70
     0
  9
$CMLSCALE
 40
1.0
  9
$PROXYGRAPHICS
 70
     1
  9
$MEASUREMENT
 70
     0
  0
ENDSEC
  0
SECTION
  2
CLASSES
  0
CLASS
  1
LWPOLYLINE
  2
AcDbPolyline
  3
AutoCAD 2000
 90
        0
280
     0
281
     1
  0
CLASS
  1
IMAGE
  2
AcDbRasterImage
  3
ISM
 90
      127
280
     0
281
     1
  0
CLASS
  1
OLE2FRAME
  2
AcDbOle2Frame
  3
AutoCAD 2000
 90
        0
280
     0
281
     1
  0
CLASS
  1
HATCH
  2
AcDbHatch
  3
AutoCAD 2000
 90
        0
280
     0
281
     1
  0
CLASS
  1
DICTIONARYVAR
  2
AcDbDictionaryVar
  3
AutoCAD 2000
 90
        0
280
     0
281
     0
  0
CLASS
  1
RASTERVARIABLES
  2
AcDbRasterVariables
  3
ISM
 90
        0
280
     0
281
     0
  0
CLASS
  1
IMAGEDEF
  2
AcDbRasterImageDef
  3
ISM
 90
        0
280
     0
281
     0
  0
CLASS
  1
IMAGEDEF_REACTOR
  2
AcDbRasterImageDefReactor
  3
ISM
 90
        1
280
     0
281
     0
  0
CLASS
  1
IDBUFFER
  2
AcDbIdBuffer
  3
AutoCAD 2000
 90
        0
280
     0
281
     0
  0
CLASS
  1
SPATIAL_FILTER
  2
AcDbSpatialFilter
  3
AutoCAD 2000
 90
        0
280
     0
281
     0
  0
CLASS
  1
XRECORD
  2
AcDbXrecord
  3
AutoCAD 2000
 90
        0
280
     0
281
     0
  0
CLASS
  1
SORTENTSTABLE
  2
AcDbSortentsTable
  3
AutoCAD 2000
 90
        0
280
     0
281
     0
  0
CLASS
  1
LAYER_INDEX
  2
AcDbLayerIndex
  3
AutoCAD 2000
 90
        0
280
     0
281
     0
  0
CLASS
  1
SPATIAL_INDEX
  2
AcDbSpatialIndex
  3
AutoCAD 2000
 90
        0
280
     0
281
     0
  0
CLASS
  1
OBJECT_PTR
  2
CAseDLPNTableRecord
  3
ASE-LPNTableRecord
 90
        1
280
     0
281
     0
  0
CLASS
  1
ACDBDICTIONARYWDFLT
  2
AcDbDictionaryWithDefault
  3
AutoCAD 2000
 90
        0
280
     0
281
     0
  0
CLASS
  1
ACDBPLACEHOLDER
  2
AcDbPlaceHolder
  3
AutoCAD 2000
 90
        0
280
     0
281
     0
  0
CLASS
  1
LAYOUT
  2
AcDbLayout
  3
AutoCAD 2000
 90
        0
280
     0
281
     0
  0
CLASS
  1
LONG_TRANSACTION
  2
AcDbLongTransaction
  3
AutoCAD 2000
 90
        0
280
     0
281
     0
  0
CLASS
  1
LWPOLYLINE
  2
AcDbPolyline
  3
AutoCAD 2000
 90
        0
280
     0
281
     1
  0
CLASS
  1
HATCH
  2
AcDbHatch
  3
AutoCAD 2000
 90
        0
280
     0
281
     1
  0
CLASS
  1
XRECORD
  2
AcDbXrecord
  3
AutoCAD 2000
 90
        0
280
     0
281
     0
  0
CLASS
  1
LONG_TRANSACTION
  2
AcDbLongTransaction
  3
AutoCAD 2000
 90
        0
280
     0
281
     0
  0
CLASS
  1
LWPOLYLINE
  2
AcDbPolyline
  3
AutoCAD 2000
 90
        0
280
     0
281
     1
  0
CLASS
  1
HATCH
  2
AcDbHatch
  3
AutoCAD 2000
 90
        0
280
     0
281
     1
  0
CLASS
  1
XRECORD
  2
AcDbXrecord
  3
AutoCAD 2000
 90
        0
280
     0
281
     0
  0
CLASS
  1
LONG_TRANSACTION
  2
AcDbLongTransaction
  3
AutoCAD 2000
 90
        0
280
     0
281
     0
  0
CLASS
  1
LWPOLYLINE
  2
AcDbPolyline
  3
AutoCAD 2000
 90
        0
280
     0
281
     1
  0
CLASS
  1
HATCH
  2
AcDbHatch
  3
AutoCAD 2000
 90
        0
280
     0
281
     1
  0
CLASS
  1
XRECORD
  2
AcDbXrecord
  3
AutoCAD 2000
 90
        0
280
     0
281
     0
  0
CLASS
  1
LONG_TRANSACTION
  2
AcDbLongTransaction
  3
AutoCAD 2000
 90
        0
280
     0
281
     0
  0
CLASS
  1
LWPOLYLINE
  2
AcDbPolyline
  3
AutoCAD 2000
 90
        0
280
     0
281
     1
  0
CLASS
  1
HATCH
  2
AcDbHatch
  3
AutoCAD 2000
 90
        0
280
     0
281
     1
  0
CLASS
  1
XRECORD
  2
AcDbXrecord
  3
AutoCAD 2000
 90
        0
280
     0
281
     0
  0
CLASS
  1
LONG_TRANSACTION
  2
AcDbLongTransaction
  3
AutoCAD 2000
 90
        0
280
     0
281
     0
  0
CLASS
  1
LWPOLYLINE
  2
AcDbPolyline
  3
AutoCAD 2000
 90
        0
280
     0
281
     1
  0
CLASS
  1
HATCH
  2
AcDbHatch
  3
AutoCAD 2000
 90
        0
280
     0
281
     1
  0
CLASS
  1
XRECORD
  2
AcDbXrecord
  3
AutoCAD 2000
 90
        0
280
     0
281
     0
  0
ENDSEC
  0
SECTION
  2
TABLES
  0
TABLE
  2
VPORT
  5
7
330
0
100
AcDbSymbolTable
 70
     3
  0
VPORT
  5
2F
330
7
100
AcDbSymbolTableRecord
100
AcDbViewportTableRecord
  2
DCADVPORT
 70
     0
 10
8.766460682635857
 20
3.235670367038969
 11
11.37868532600011
 21
6.292208675534501
 12
6.209999999999999
 22
9.019999999999999
 13
0.0
 23
0.0
 14
1.0
 24
1.0
 15
0.0
 25
0.0
 16
0.0
 26
0.0
 36
1.0
 17
0.0
 27
0.0
 37
0.0
 40
18.04
 41
0.688564
 42
50.0
 43
1.0
 44
1.0
 50
0.0
 51
0.0
 71
     0
 72
   100
 73
     1
 74
     1
 75
     0
 76
     0
 77
     0
 78
     0
  0
VPORT
  5
260
330
7
100
AcDbSymbolTableRecord
100
AcDbViewportTableRecord
  2
*ACTIVE
 70
     0
 10
0.0
 20
0.0
 11
1.0
 21
1.0
 12
9.882322293187545
 22
4.473388981625792
 13
0.0
 23
0.0
 14
1.0
 24
1.0
 15
0.0
 25
0.0
 16
0.0
 26
0.0
 36
1.0
 17
0.0
 27
0.0
 37
0.0
 40
6.186381812780729
 41
1.570528967254408
 42
50.0
 43
0.0
 44
0.0
 50
0.0
 51
0.0
 71
     0
 72
   100
 73
     1
 74
     1
 75
     0
 76
     0
 77
     0
 78
     0
  0
ENDTAB
  0
TABLE
  2
LTYPE
  5
4
330
0
100
AcDbSymbolTable
 70
     2
  0
LTYPE
  5
11
330
4
100
AcDbSymbolTableRecord
100
AcDbLinetypeTableRecord
  2
BYBLOCK
 70
     0
  3

 72
    65
 73
     0
 40
0.0
  0
LTYPE
  5
12
330
4
100
AcDbSymbolTableRecord
100
AcDbLinetypeTableRecord
  2
BYLAYER
 70
     0
  3

 72
    65
 73
     0
 40
0.0
  0
LTYPE
  5
13
330
4
100
AcDbSymbolTableRecord
100
AcDbLinetypeTableRecord
  2
CONTINUOUS
 70
     0
  3
Solid line
 72
    65
 73
     0
 40
0.0
  0
LTYPE
  5
1E
330
4
100
AcDbSymbolTableRecord
100
AcDbLinetypeTableRecord
  2
CONTINUOUS
 70
     0
  3
Solid line
 72
    65
 73
     0
 40
0.0
  0
ENDTAB
  0
TABLE
  2
LAYER
  5
2
330
0
100
AcDbSymbolTable
 70
     6
  0
LAYER
  5
14
330
2
100
AcDbSymbolTableRecord
100
AcDbLayerTableRecord
  2
0
 70
     0
 62
     7
  6
CONTINUOUS
  0
LAYER
  5
2A
330
2
100
AcDbSymbolTableRecord
100
AcDbLayerTableRecord
  2
0
 70
     0
 62
   250
  6
CONTINUOUS
  0
LAYER
  5
2B
330
2
100
AcDbSymbolTableRecord
100
AcDbLayerTableRecord
  2
ADP2DETAIL
 70
     0
 62
   250
  6
CONTINUOUS
  0
LAYER
  5
2C
330
2
100
AcDbSymbolTableRecord
100
AcDbLayerTableRecord
  2
ADPDIM
 70
     0
 62
     3
  6
CONTINUOUS
  0
LAYER
  5
2D
330
2
100
AcDbSymbolTableRecord
100
AcDbLayerTableRecord
  2
ADP1DETAIL
 70
     0
 62
   250
  6
CONTINUOUS
  0
LAYER
  5
2E
330
2
100
AcDbSymbolTableRecord
100
AcDbLayerTableRecord
  2
DEFPOINTS
 70
     0
 62
   250
  6
CONTINUOUS
  0
ENDTAB
  0
TABLE
  2
STYLE
  5
3
330
0
100
AcDbSymbolTable
 70
     2
  0
STYLE
  5
17
330
3
100
AcDbSymbolTableRecord
100
AcDbTextStyleTableRecord
  2
STANDARD
 70
     0
 40
0.0
 41
1.0
 50
0.0
 71
     0
 42
0.0
  3
txt
  4

  0
STYLE
  5
100
330
3
100
AcDbSymbolTableRecord
100
AcDbTextStyleTableRecord
  2
ARIAL_WIDE
 70
     0
 40
0.0
 41
1.25
 50
0.0
 71
     0
 42
0.2
  3
ARIAL.TTF
  4

1001
ACAD
1000
Arial
1071
       34
  0
ENDTAB
  0
TABLE
  2
VIEW
  5
5
330
0
100
AcDbSymbolTable
 70
     0
  0
ENDTAB
  0
TABLE
  2
UCS
  5
6
330
0
100
AcDbSymbolTable
 70
     0
  0
ENDTAB
  0
TABLE
  2
APPID
  5
8
330
0
100
AcDbSymbolTable
 70
     1
  0
APPID
  5
16
330
8
100
AcDbSymbolTableRecord
100
AcDbRegAppTableRecord
  2
ACAD
 70
     0
  0
ENDTAB
  0
TABLE
  2
DIMSTYLE
  5
9
330
0
100
AcDbSymbolTable
 70
     1
  0
DIMSTYLE
105
18
330
9
100
AcDbSymbolTableRecord
100
AcDbDimStyleTableRecord
  2
STANDARD
 70
     0
  3

  4

  5

  6

  7

 40
1.0
 41
0.18
 42
0.0625
 43
0.38
 44
0.18
 45
0.0
 46
0.0
 47
0.0
 48
0.0
140
0.18
141
0.09
142
0.0
143
25.4
144
1.0
145
0.0
146
1.0
147
0.09
 71
     0
 72
     0
 73
     1
 74
     1
 75
     0
 76
     0
 77
     0
 78
     0
170
     0
171
     2
172
     0
173
     0
174
     0
175
     0
176
     0
177
     0
178
     0
270
     2
271
     4
272
     4
273
     2
274
     2
340
17
275
     0
280
     0
281
     0
282
     0
283
     1
284
     0
285
     0
286
     0
287
     0
288
     0
  0
ENDTAB
  0
TABLE
  2
BLOCK_RECORD
  5
1
330
0
100
AcDbSymbolTable
 70
     0
  0
BLOCK_RECORD
  5
A
102
{ACAD_XDICTIONARY
360
157
102
}
330
1
100
AcDbSymbolTableRecord
100
AcDbBlockTableRecord
  2
*MODEL_SPACE
  0
BLOCK_RECORD
  5
B
102
{ACAD_XDICTIONARY
360
159
102
}
330
1
100
AcDbSymbolTableRecord
100
AcDbBlockTableRecord
  2
*PAPER_SPACE
  0
ENDTAB
  0
ENDSEC
  0
SECTION
  2
BLOCKS
  0
BLOCK
  5
D
330
A
100
AcDbEntity
  8
0
100
AcDbBlockBegin
  2
*MODEL_SPACE
 70
     0
 10
0.0
 20
0.0
 30
0.0
  3
*MODEL_SPACE
  1

  0
ENDBLK
  5
E
330
A
100
AcDbEntity
  8
0
100
AcDbBlockEnd
  0
BLOCK
  5
F
330
B
100
AcDbEntity
 67
     1
  8
0
100
AcDbBlockBegin
  2
*PAPER_SPACE
 70
     0
 10
0.0
 20
0.0
 30
0.0
  3
*PAPER_SPACE
  1

  0
ENDBLK
  5
10
330
B
100
AcDbEntity
 67
     1
  8
0
100
AcDbBlockEnd
  0
ENDSEC
  0
SECTION
  2
ENTITIES
  0
CIRCLE
  5
30
330
A
100
AcDbEntity
  8
ADP1DETAIL
  6
CONTINUOUS
 62
     7
100
AcDbCircle
 10
-9.893866546133438
 20
5.681718976264532
 30
0.0
 40
0.492373504516733
210
0.0
220
0.0
230
-1.0
  0
CIRCLE
  5
31
330
A
100
AcDbEntity
  8
ADP1DETAIL
  6
CONTINUOUS
 62
     7
100
AcDbCircle
 10
-9.892789171067068
 20
5.682946337493859
 30
0.0
 40
0.56319293076265
210
0.0
220
0.0
230
-1.0
  0
CIRCLE
  5
32
330
A
100
AcDbEntity
  8
ADP1DETAIL
  6
CONTINUOUS
 62
     7
100
AcDbCircle
 10
-9.893866546133438
 20
5.681718976264532
 30
0.0
 40
0.6104896992699694
210
0.0
220
0.0
230
-1.0
  0
LWPOLYLINE
  5
33
330
A
100
AcDbEntity
  8
ADP1DETAIL
  6
CONTINUOUS
 62
     7
100
AcDbPolyline
 90
        2
 70
   128
 43
0.0
 10
9.331366546133438
 20
3.944003700372302
 10
10.45636654613343
 20
3.944003700372302
  0
LWPOLYLINE
  5
37
330
A
100
AcDbEntity
  8
ADP1DETAIL
  6
CONTINUOUS
 62
     7
100
AcDbPolyline
 90
        2
 70
   128
 43
0.0
 10
9.330756350189297
 20
4.033121703898368
 10
10.45575635018929
 20
4.033121703898368
  0
LWPOLYLINE
  5
3B
330
A
100
AcDbEntity
  8
ADP1DETAIL
  6
CONTINUOUS
 62
     7
100
AcDbPolyline
 90
        2
 70
   128
 43
0.0
 10
9.331366546133438
 20
4.595931341875783
 10
10.45636654613343
 20
4.595931341875783
  0
LWPOLYLINE
  5
3F
330
A
100
AcDbEntity
  8
ADP1DETAIL
  6
CONTINUOUS
 62
     7
100
AcDbPolyline
 90
        2
 70
   128
 43
0.0
 10
9.331366546133438
 20
4.684276097318154
 10
10.45636654613343
 20
4.684276097318154
  0
ARC
  5
43
330
A
100
AcDbEntity
  8
ADP1DETAIL
  6
CONTINUOUS
 62
     7
100
AcDbCircle
 10
-10.15026482591603
 20
4.313638345882274
 30
0.0
 40
0.8661891988577821
210
0.0
220
0.0
230
-1.0
100
AcDbArc
 50
341.1039940697046
 51
19.02024558867157
  0
LWPOLYLINE
  5
44
330
A
100
AcDbEntity
  8
ADP2DETAIL
  6
CONTINUOUS
 62
     5
100
AcDbPolyline
 90
        2
 70
   128
 43
0.0
 10
9.402534531266471
 20
4.682121347185359
 10
9.402534531266471
 20
3.950467950770471
  0
LWPOLYLINE
  5
48
330
A
100
AcDbEntity
  8
ADP1DETAIL
  6
CONTINUOUS
 62
     7
100
AcDbPolyline
 90
        2
 70
   128
 43
0.0
 10
9.330756350189297
 20
4.033121703898368
 10
9.330756350189297
 20
3.942622198323254
  0
LWPOLYLINE
  5
4C
330
A
100
AcDbEntity
  8
ADP1DETAIL
  6
CONTINUOUS
 62
     7
100
AcDbPolyline
 90
        2
 70
   128
 43
0.0
 10
9.331366546133438
 20
4.684276097318154
 10
9.331366546133438
 20
4.595931341875783
  0
ARC
  5
50
330
A
100
AcDbEntity
  8
ADP1DETAIL
  6
CONTINUOUS
 62
     7
100
AcDbCircle
 10
-9.461786510812448
 20
4.284051552508773
 30
0.0
 40
1.042333175944578
210
0.0
220
0.0
230
-1.0
100
AcDbArc
 50
162.5896509767708
 51
193.9129148963584
  0
LWPOLYLINE
  5
51
330
A
100
AcDbEntity
  8
ADP2DETAIL
  6
CONTINUOUS
 62
     5
100
AcDbPolyline
 90
        2
 70
   128
 43
0.0
 10
10.38735331113314
 20
3.94323775678786
 10
10.38735331113314
 20
4.683976124992293
  0
LWPOLYLINE
  5
55
330
A
100
AcDbEntity
  8
ADP1DETAIL
  6
CONTINUOUS
 62
     7
100
AcDbPolyline
 90
        2
 70
   128
 43
0.0
 10
10.45575635018929
 20
3.942622198323254
 10
10.45575635018929
 20
4.033121703898368
  0
LWPOLYLINE
  5
59
330
A
100
AcDbEntity
  8
0
  6
CONTINUOUS
 62
     7
100
AcDbPolyline
 90
        2
 70
   128
 43
0.0
 10
10.47354331644277
 20
3.944003700372302
 10
10.47354331644277
 20
3.944003700372302
  0
LWPOLYLINE
  5
5D
330
A
100
AcDbEntity
  8
ADP1DETAIL
  6
CONTINUOUS
 62
     7
100
AcDbPolyline
 90
        2
 70
   128
 43
0.0
 10
10.45636654613343
 20
4.595931341875783
 10
10.45636654613343
 20
4.684276097318154
  0
LWPOLYLINE
  5
61
330
A
100
AcDbEntity
  8
ADPDIM
  6
CONTINUOUS
 62
     3
 48
0.125
100
AcDbPolyline
 90
        2
 70
   128
 43
0.0
 10
9.284044486616588
 20
4.252717273911545
 10
9.284044486616588
 20
3.573480432019792
  0
LWPOLYLINE
  5
65
330
A
100
AcDbEntity
  8
ADPDIM
  6
CONTINUOUS
 62
     3
 48
0.125
100
AcDbPolyline
 90
        2
 70
   128
 43
0.0
 10
10.5036853260001
 20
4.251639898845176
 10
10.5036853260001
 20
3.573480432019792
  0
LWPOLYLINE
  5
69
330
A
100
AcDbEntity
  8
ADPDIM
  6
CONTINUOUS
 62
     3
 48
0.125
100
AcDbPolyline
 90
        2
 70
   128
 43
0.0
 10
9.284044486616588
 20
3.753480432019792
 10
9.034044486616588
 20
3.753480432019792
  0
LWPOLYLINE
  5
6D
330
A
100
AcDbEntity
  8
ADPDIM
  6
CONTINUOUS
 62
     3
 48
0.125
100
AcDbPolyline
 90
        2
 70
   128
 43
0.0
 10
10.5036853260001
 20
3.753480432019792
 10
10.75368532600011
 20
3.753480432019792
  0
LWPOLYLINE
  5
71
330
A
100
AcDbEntity
  8
ADPDIM
  6
CONTINUOUS
 62
     3
 48
0.125
100
AcDbPolyline
 90
        2
 70
   128
 43
0.0
 10
9.159044486616588
 20
3.628480432019792
 10
9.409044486616588
 20
3.878480432019792
  0
LWPOLYLINE
  5
75
330
A
100
AcDbEntity
  8
ADPDIM
  6
CONTINUOUS
 62
     3
 48
0.125
100
AcDbPolyline
 90
        2
 70
   128
 43
0.0
 10
10.3786853260001
 20
3.628480432019792
 10
10.6286853260001
 20
3.878480432019792
  0
TEXT
  5
79
330
A
100
AcDbEntity
  8
ADPDIM
 62
     3
 48
0.0
100
AcDbText
 10
10.87868532600011
 20
3.690980432019792
 30
0.0
 40
0.125
  1
1 1/4
 72
     5
 11
11.37868532600011
 21
3.690980432019792
 31
0.0
100
AcDbText
  0
LWPOLYLINE
  5
7A
330
A
100
AcDbEntity
  8
ADPDIM
  6
CONTINUOUS
 62
     3
 48
0.125
100
AcDbPolyline
 90
        2
 70
   128
 43
0.0
 10
9.402534531266471
 20
4.744621347185359
 10
9.402534531266471
 20
5.045546032434444
  0
LWPOLYLINE
  5
7E
330
A
100
AcDbEntity
  8
ADPDIM
  6
CONTINUOUS
 62
     3
 48
0.125
100
AcDbPolyline
 90
        2
 70
   128
 43
0.0
 10
10.38735331113314
 20
4.746476124992293
 10
10.38735331113314
 20
5.045546032434444
  0
LWPOLYLINE
  5
82
330
A
100
AcDbEntity
  8
ADPDIM
  6
CONTINUOUS
 62
     3
 48
0.125
100
AcDbPolyline
 90
        2
 70
   128
 43
0.0
 10
9.402534531266471
 20
4.865546032434444
 10
9.749110587866473
 20
4.865546032434444
  0
LWPOLYLINE
  5
86
330
A
100
AcDbEntity
  8
ADPDIM
  6
CONTINUOUS
 62
     3
 48
0.125
100
AcDbPolyline
 90
        2
 70
   128
 43
0.0
 10
10.38735331113314
 20
4.865546032434444
 10
10.04077725453314
 20
4.865546032434444
  0
LWPOLYLINE
  5
8A
330
A
100
AcDbEntity
  8
ADPDIM
  6
CONTINUOUS
 62
     3
 48
0.125
100
AcDbPolyline
 90
        2
 70
   128
 43
0.0
 10
9.277534531266471
 20
4.740546032434444
 10
9.527534531266471
 20
4.990546032434444
  0
LWPOLYLINE
  5
8E
330
A
100
AcDbEntity
  8
ADPDIM
  6
CONTINUOUS
 62
     3
 48
0.125
100
AcDbPolyline
 90
        2
 70
   128
 43
0.0
 10
10.26235331113314
 20
4.740546032434444
 10
10.51235331113314
 20
4.990546032434444
  0
TEXT
  5
92
330
A
100
AcDbEntity
  8
ADPDIM
 62
     3
 48
0.0
100
AcDbText
 10
9.874110587866473
 20
4.803046032434444
 30
0.0
 40
0.125
  1
1
 72
     5
 11
9.915777254533141
 21
4.803046032434444
 31
0.0
100
AcDbText
  0
LWPOLYLINE
  5
93
330
A
100
AcDbEntity
  8
ADPDIM
  6
CONTINUOUS
 62
     3
 48
0.125
100
AcDbPolyline
 90
        2
 70
   128
 43
0.0
 10
9.251689775824102
 20
4.684276097318154
 10
8.766460682635857
 20
4.684276097318154
  0
LWPOLYLINE
  5
97
330
A
100
AcDbEntity
  8
ADPDIM
  6
CONTINUOUS
 62
     3
 48
0.125
100
AcDbPolyline
 90
        2
 70
   128
 43
0.0
 10
9.251689775824102
 20
3.944003700372302
 10
8.766460682635857
 20
3.944003700372302
  0
LWPOLYLINE
  5
9B
330
A
100
AcDbEntity
  8
ADPDIM
  6
CONTINUOUS
 62
     3
 48
0.125
100
AcDbPolyline
 90
        2
 70
   128
 43
0.0
 10
8.946460682635857
 20
4.684276097318154
 10
8.946460682635857
 20
4.934276097318154
  0
LWPOLYLINE
  5
9F
330
A
100
AcDbEntity
  8
ADPDIM
  6
CONTINUOUS
 62
     3
 48
0.125
100
AcDbPolyline
 90
        2
 70
   128
 43
0.0
 10
8.946460682635857
 20
3.944003700372302
 10
8.946460682635857
 20
3.694003700372302
  0
LWPOLYLINE
  5
A3
330
A
100
AcDbEntity
  8
ADPDIM
  6
CONTINUOUS
 62
     3
 48
0.125
100
AcDbPolyline
 90
        2
 70
   128
 43
0.0
 10
9.071460682635857
 20
4.559276097318154
 10
8.821460682635857
 20
4.809276097318154
  0
LWPOLYLINE
  5
A7
330
A
100
AcDbEntity
  8
ADPDIM
  6
CONTINUOUS
 62
     3
 48
0.125
100
AcDbPolyline
 90
        2
 70
   128
 43
0.0
 10
9.071460682635857
 20
3.819003700372302
 10
8.821460682635857
 20
4.069003700372301
  0
TEXT
  5
AB
330
A
100
AcDbEntity
  8
ADPDIM
 62
     3
 48
0.0
100
AcDbText
 10
9.008960682635857
 20
3.235670367038969
 30
0.0
 40
0.125
  1
3/4
 50
90.0
 72
     5
 11
9.008960682635857
 21
3.569003700372302
 31
0.0
100
AcDbText
  0
LWPOLYLINE
  5
AC
330
A
100
AcDbEntity
  8
DEFPOINTS
  6
CONTINUOUS
 62
     3
 48
0.125
100
AcDbPolyline
 90
        2
 70
   128
 43
0.0
 10
9.284044486616586
 20
4.315217273911545
 10
9.284044486616586
 20
4.315217273911545
  0
LWPOLYLINE
  5
B0
330
A
100
AcDbEntity
  8
DEFPOINTS
  6
CONTINUOUS
 62
     3
 48
0.125
100
AcDbPolyline
 90
        2
 70
   128
 43
0.0
 10
9.284044486616586
 20
4.315217273911545
 10
9.284044486616586
 20
4.315217273911545
  0
LWPOLYLINE
  5
B4
330
A
100
AcDbEntity
  8
DEFPOINTS
  6
CONTINUOUS
 62
     3
 48
0.125
100
AcDbPolyline
 90
        2
 70
   128
 43
0.0
 10
10.5036853260001
 20
4.314139898845175
 10
10.5036853260001
 20
4.314139898845175
  0
LWPOLYLINE
  5
B8
330
A
100
AcDbEntity
  8
DEFPOINTS
  6
CONTINUOUS
 62
     3
 48
0.125
100
AcDbPolyline
 90
        2
 70
   128
 43
0.0
 10
10.5036853260001
 20
4.314139898845175
 10
10.5036853260001
 20
4.314139898845175
  0
LWPOLYLINE
  5
BC
330
A
100
AcDbEntity
  8
DEFPOINTS
  6
CONTINUOUS
 62
     3
 48
0.125
100
AcDbPolyline
 90
        2
 70
   128
 43
0.0
 10
10.5036853260001
 20
3.753480432019792
 10
10.5036853260001
 20
3.753480432019792
  0
LWPOLYLINE
  5
C0
330
A
100
AcDbEntity
  8
DEFPOINTS
  6
CONTINUOUS
 62
     3
 48
0.125
100
AcDbPolyline
 90
        2
 70
   128
 43
0.0
 10
10.5036853260001
 20
3.753480432019792
 10
10.5036853260001
 20
3.753480432019792
  0
LWPOLYLINE
  5
C4
330
A
100
AcDbEntity
  8
DEFPOINTS
  6
CONTINUOUS
 62
     3
 48
0.125
100
AcDbPolyline
 90
        2
 70
   128
 43
0.0
 10
9.402534531266471
 20
4.682121347185359
 10
9.402534531266471
 20
4.682121347185359
  0
LWPOLYLINE
  5
C8
330
A
100
AcDbEntity
  8
DEFPOINTS
  6
CONTINUOUS
 62
     3
 48
0.125
100
AcDbPolyline
 90
        2
 70
   128
 43
0.0
 10
9.402534531266471
 20
4.682121347185359
 10
9.402534531266471
 20
4.682121347185359
  0
LWPOLYLINE
  5
CC
330
A
100
AcDbEntity
  8
DEFPOINTS
  6
CONTINUOUS
 62
     3
 48
0.125
100
AcDbPolyline
 90
        2
 70
   128
 43
0.0
 10
10.38735331113314
 20
4.683976124992293
 10
10.38735331113314
 20
4.683976124992293
  0
LWPOLYLINE
  5
D0
330
A
100
AcDbEntity
  8
DEFPOINTS
  6
CONTINUOUS
 62
     3
 48
0.125
100
AcDbPolyline
 90
        2
 70
   128
 43
0.0
 10
10.38735331113314
 20
4.683976124992293
 10
10.38735331113314
 20
4.683976124992293
  0
LWPOLYLINE
  5
D4
330
A
100
AcDbEntity
  8
DEFPOINTS
  6
CONTINUOUS
 62
     3
 48
0.125
100
AcDbPolyline
 90
        2
 70
   128
 43
0.0
 10
10.38735331113314
 20
4.865546032434444
 10
10.38735331113314
 20
4.865546032434444
  0
LWPOLYLINE
  5
D8
330
A
100
AcDbEntity
  8
DEFPOINTS
  6
CONTINUOUS
 62
     3
 48
0.125
100
AcDbPolyline
 90
        2
 70
   128
 43
0.0
 10
10.38735331113314
 20
4.865546032434444
 10
10.38735331113314
 20
4.865546032434444
  0
LWPOLYLINE
  5
DC
330
A
100
AcDbEntity
  8
DEFPOINTS
  6
CONTINUOUS
 62
     3
 48
0.125
100
AcDbPolyline
 90
        2
 70
   128
 43
0.0
 10
9.314189775824104
 20
4.684276097318154
 10
9.314189775824104
 20
4.684276097318154
  0
LWPOLYLINE
  5
E0
330
A
100
AcDbEntity
  8
DEFPOINTS
  6
CONTINUOUS
 62
     3
 48
0.125
100
AcDbPolyline
 90
        2
 70
   128
 43
0.0
 10
9.314189775824104
 20
4.684276097318154
 10
9.314189775824104
 20
4.684276097318154
  0
LWPOLYLINE
  5
E4
330
A
100
AcDbEntity
  8
DEFPOINTS
  6
CONTINUOUS
 62
     3
 48
0.125
100
AcDbPolyline
 90
        2
 70
   128
 43
0.0
 10
9.314189775824104
 20
3.944003700372302
 10
9.314189775824104
 20
3.944003700372302
  0
LWPOLYLINE
  5
E8
330
A
100
AcDbEntity
  8
DEFPOINTS
  6
CONTINUOUS
 62
     3
 48
0.125
100
AcDbPolyline
 90
        2
 70
   128
 43
0.0
 10
9.314189775824104
 20
3.944003700372302
 10
9.314189775824104
 20
3.944003700372302
  0
LWPOLYLINE
  5
EC
330
A
100
AcDbEntity
  8
DEFPOINTS
  6
CONTINUOUS
 62
     3
 48
0.125
100
AcDbPolyline
 90
        2
 70
   128
 43
0.0
 10
8.946460682635859
 20
3.944003700372302
 10
8.946460682635859
 20
3.944003700372302
  0
LWPOLYLINE
  5
F0
330
A
100
AcDbEntity
  8
DEFPOINTS
  6
CONTINUOUS
 62
     3
 48
0.125
100
AcDbPolyline
 90
        2
 70
   128
 43
0.0
 10
8.946460682635859
 20
3.944003700372302
 10
8.946460682635859
 20
3.944003700372302
  0
TEXT
  5
101
330
A
100
AcDbEntity
  8
ADPDIM
100
AcDbText
 10
5.048547106366166
 20
2.682013963217084
 30
0.0
 40
0.09375
  1
J U L I U S  B L U M  &  C O . ,  I N C .      ( 8 0 0 )  5 2 6 - 6 2 9 3        W W W . J U L I U S B L U M . C O M        P A R T  N o .  4 7 3
 41
1.25
  7
ARIAL_WIDE
 72
     1
 11
9.874577759503956
 21
2.775763963217084
 31
0.0
100
AcDbText
 73
     3
  0
ENDSEC
  0
SECTION
  2
OBJECTS
  0
DICTIONARY
  5
19
330
0
100
AcDbDictionary
  3
ACAD_GROUP
350
1A
  3
ACAD_LAYOUT
350
F9
  3
ACAD_MLINESTYLE
350
1B
  3
ACAD_PLOTSETTINGS
350
FA
  3
ACAD_PLOTSTYLENAME
350
F7
  3
ACDBHEADERROUNDTRIPXREC
350
261
  3
ACDBVARIABLEDICTIONARY
350
163
  0
DICTIONARY
  5
157
330
A
100
AcDbDictionary
280
     1
  3
ACAD_LAYOUTSELFREF
360
281
  0
DICTIONARY
  5
159
330
B
100
AcDbDictionary
280
     1
  3
ACAD_LAYOUTSELFREF
360
282
  0
DICTIONARY
  5
1A
102
{ACAD_REACTORS
330
19
102
}
330
19
100
AcDbDictionary
  0
DICTIONARY
  5
F9
102
{ACAD_REACTORS
330
19
102
}
330
19
100
AcDbDictionary
  0
DICTIONARY
  5
1B
102
{ACAD_REACTORS
330
19
102
}
330
19
100
AcDbDictionary
  3
STANDARD
350
1C
  0
DICTIONARY
  5
FA
102
{ACAD_REACTORS
330
19
102
}
330
19
100
AcDbDictionary
  0
ACDBDICTIONARYWDFLT
  5
F7
102
{ACAD_REACTORS
330
19
102
}
330
19
100
AcDbDictionary
281
     1
  3
Normal
350
F8
100
AcDbDictionaryWithDefault
340
F8
  0
DICTIONARY
  5
261
102
{ACAD_REACTORS
330
19
102
}
330
19
100
AcDbDictionary
  3
CEPSNTYPE
350
26B
  3
FINGERPRINTGUID
350
26C
  3
HYPERLINKBASE
350
264
  3
INSUNITS
350
26A
  3
LAYOUTDICT
350
266
  3
LWETCUNION
350
269
  3
PLOTSETDICT
350
267
  3
PLOTSTYLNAMDICT
350
268
  3
PSVPSCALE
350
26E
  3
PUCSBASE
350
271
  3
PUCSORGBACK
350
277
  3
PUCSORGBOTTOM
350
273
  3
PUCSORGFRONT
350
276
  3
PUCSORGLEFT
350
274
  3
PUCSORGRIGHT
350
275
  3
PUCSORGTOP
350
272
  3
PUCSORTHOREF
350
26F
  3
PUCSORTHOVIEW
350
270
  3
STYLESHEET
350
265
  3
TSTACKALIGN
350
262
  3
TSTACKSIZE
350
263
  3
UCSBASE
350
27A
  3
UCSORGBACK
350
280
  3
UCSORGBOTTOM
350
27C
  3
UCSORGFRONT
350
27F
  3
UCSORGLEFT
350
27D
  3
UCSORGRIGHT
350
27E
  3
UCSORGTOP
350
27B
  3
UCSORTHOREF
350
278
  3
UCSORTHOVIEW
350
279
  3
VERSIONGUID
350
26D
  0
DICTIONARY
  5
163
102
{ACAD_REACTORS
330
19
102
}
330
19
100
AcDbDictionary
  3
DIMASSOC
350
164
  0
XRECORD
  5
281
102
{ACAD_REACTORS
330
157
102
}
330
157
100
AcDbXrecord
340
A
  0
XRECORD
  5
282
102
{ACAD_REACTORS
330
159
102
}
330
159
100
AcDbXrecord
340
B
  0
MLINESTYLE
  5
1C
102
{ACAD_REACTORS
330
1B
102
}
330
1B
100
AcDbMlineStyle
  2
STANDARD
 70
     0
  3

 62
     0
 51
90.00000000000019
 52
90.00000000000019
 71
     2
 49
0.5
 62
   256
  6
BYLAYER
 49
-0.5
 62
   256
  6
BYLAYER
  0
ACDBPLACEHOLDER
  5
F8
102
{ACAD_REACTORS
330
F7
102
}
330
F7
100
AcDbPlaceHolder
280
     0
  0
XRECORD
  5
26B
102
{ACAD_REACTORS
330
261
102
}
330
261
100
AcDbXrecord
 90
        0
  0
XRECORD
  5
26C
102
{ACAD_REACTORS
330
261
102
}
330
261
100
AcDbXrecord
  1
{964F6CB5-2A02-4844-9D74-D384D30F1784}
  0
XRECORD
  5
264
102
{ACAD_REACTORS
330
261
102
}
330
261
100
AcDbXrecord
  1

  0
XRECORD
  5
26A
102
{ACAD_REACTORS
330
261
102
}
330
261
100
AcDbXrecord
 90
        0
  0
XRECORD
  5
266
102
{ACAD_REACTORS
330
261
102
}
330
261
100
AcDbXrecord
340
F9
  0
XRECORD
  5
269
102
{ACAD_REACTORS
330
261
102
}
330
261
100
AcDbXrecord
 90
    14877
  0
XRECORD
  5
267
102
{ACAD_REACTORS
330
261
102
}
330
261
100
AcDbXrecord
340
FA
  0
XRECORD
  5
268
102
{ACAD_REACTORS
330
261
102
}
330
261
100
AcDbXrecord
340
F7
  0
XRECORD
  5
26E
102
{ACAD_REACTORS
330
261
102
}
330
261
100
AcDbXrecord
 40
0.0
  0
XRECORD
  5
271
102
{ACAD_REACTORS
330
261
102
}
330
261
100
AcDbXrecord
340
0
  0
XRECORD
  5
277
102
{ACAD_REACTORS
330
261
102
}
330
261
100
AcDbXrecord
 10
0.0
 20
0.0
 30
0.0
  0
XRECORD
  5
273
102
{ACAD_REACTORS
330
261
102
}
330
261
100
AcDbXrecord
 10
0.0
 20
0.0
 30
0.0
  0
XRECORD
  5
276
102
{ACAD_REACTORS
330
261
102
}
330
261
100
AcDbXrecord
 10
0.0
 20
0.0
 30
0.0
  0
XRECORD
  5
274
102
{ACAD_REACTORS
330
261
102
}
330
261
100
AcDbXrecord
 10
0.0
 20
0.0
 30
0.0
  0
XRECORD
  5
275
102
{ACAD_REACTORS
330
261
102
}
330
261
100
AcDbXrecord
 10
0.0
 20
0.0
 30
0.0
  0
XRECORD
  5
272
102
{ACAD_REACTORS
330
261
102
}
330
261
100
AcDbXrecord
 10
0.0
 20
0.0
 30
0.0
  0
XRECORD
  5
26F
102
{ACAD_REACTORS
330
261
102
}
330
261
100
AcDbXrecord
340
0
  0
XRECORD
  5
270
102
{ACAD_REACTORS
330
261
102
}
330
261
100
AcDbXrecord
 70
     0
  0
XRECORD
  5
265
102
{ACAD_REACTORS
330
261
102
}
330
261
100
AcDbXrecord
  1

  0
XRECORD
  5
262
102
{ACAD_REACTORS
330
261
102
}
330
261
100
AcDbXrecord
 90
        1
  0
XRECORD
  5
263
102
{ACAD_REACTORS
330
261
102
}
330
261
100
AcDbXrecord
 90
       70
  0
XRECORD
  5
27A
102
{ACAD_REACTORS
330
261
102
}
330
261
100
AcDbXrecord
340
0
  0
XRECORD
  5
280
102
{ACAD_REACTORS
330
261
102
}
330
261
100
AcDbXrecord
 10
0.0
 20
0.0
 30
0.0
  0
XRECORD
  5
27C
102
{ACAD_REACTORS
330
261
102
}
330
261
100
AcDbXrecord
 10
0.0
 20
0.0
 30
0.0
  0
XRECORD
  5
27F
102
{ACAD_REACTORS
330
261
102
}
330
261
100
AcDbXrecord
 10
0.0
 20
0.0
 30
0.0
  0
XRECORD
  5
27D
102
{ACAD_REACTORS
330
261
102
}
330
261
100
AcDbXrecord
 10
0.0
 20
0.0
 30
0.0
  0
XRECORD
  5
27E
102
{ACAD_REACTORS
330
261
102
}
330
261
100
AcDbXrecord
 10
0.0
 20
0.0
 30
0.0
  0
XRECORD
  5
27B
102
{ACAD_REACTORS
330
261
102
}
330
261
100
AcDbXrecord
 10
0.0
 20
0.0
 30
0.0
  0
XRECORD
  5
278
102
{ACAD_REACTORS
330
261
102
}
330
261
100
AcDbXrecord
340
0
  0
XRECORD
  5
279
102
{ACAD_REACTORS
330
261
102
}
330
261
100
AcDbXrecord
 70
     0
  0
XRECORD
  5
26D
102
{ACAD_REACTORS
330
261
102
}
330
261
100
AcDbXrecord
  1
{33A50E73-544E-4A67-A48F-DEE720E4DD08}
  0
DICTIONARYVAR
  5
164
102
{ACAD_REACTORS
330
163
102
}
330
163
100
DictionaryVariables
280
     0
  1
1
  0
ENDSEC
  0
EOF
