  0
SECTION
  2
HEADER
  9
$ACADVER
  1
AC1014
  9
$ACADMAINTVER
 70
     9
  9
$DWGCODEPAGE
  3
ANSI_1252
  9
$INSBASE
 10
0.0
 20
0.0
 30
0.0
  9
$EXTMIN
 10
18.37161331513347
 20
3.901939931326021
 30
0.0
  9
$EXTMAX
 10
31.28941686220032
 20
8.853986285666284
 30
0.0
  9
$LIMMIN
 10
0.0
 20
0.0
  9
$LIMMAX
 10
0.0
 20
0.0
  9
$ORTHOMODE
 70
     1
  9
$REGENMODE
 70
     1
  9
$FILLMODE
 70
     1
  9
$QTEXTMODE
 70
     0
  9
$MIRRTEXT
 70
     1
  9
$DRAGMODE
 70
     0
  9
$LTSCALE
 40
1.0
  9
$OSMODE
 70
    37
  9
$ATTMODE
 70
     1
  9
$TEXTSIZE
 40
0.0
  9
$TRACEWID
 40
0.05
  9
$TEXTSTYLE
  7
STANDARD
  9
$CLAYER
  8
0
  9
$CELTYPE
  6
CONTINUOUS
  9
$CECOLOR
 62
   256
  9
$CELTSCALE
 40
1.0
  9
$DELOBJ
 70
     1
  9
$DISPSILH
 70
     0
  9
$DIMSCALE
 40
1.0
  9
$DIMASZ
 40
0.18
  9
$DIMEXO
 40
0.0625
  9
$DIMDLI
 40
0.38
  9
$DIMRND
 40
0.0
  9
$DIMDLE
 40
0.0
  9
$DIMEXE
 40
0.18
  9
$DIMTP
 40
0.0
  9
$DIMTM
 40
0.0
  9
$DIMTXT
 40
0.18
  9
$DIMCEN
 40
0.09
  9
$DIMTSZ
 40
0.0
  9
$DIMTOL
 70
     0
  9
$DIMLIM
 70
     0
  9
$DIMTIH
 70
     1
  9
$DIMTOH
 70
     1
  9
$DIMSE1
 70
     0
  9
$DIMSE2
 70
     0
  9
$DIMTAD
 70
     0
  9
$DIMZIN
 70
     0
  9
$DIMBLK
  1

  9
$DIMASO
 70
     1
  9
$DIMSHO
 70
     1
  9
$DIMPOST
  1

  9
$DIMAPOST
  1

  9
$DIMALT
 70
     0
  9
$DIMALTD
 70
     2
  9
$DIMALTF
 40
25.4
  9
$DIMLFAC
 40
1.0
  9
$DIMTOFL
 70
     0
  9
$DIMTVP
 40
0.0
  9
$DIMTIX
 70
     0
  9
$DIMSOXD
 70
     0
  9
$DIMSAH
 70
     0
  9
$DIMBLK1
  1

  9
$DIMBLK2
  1

  9
$DIMSTYLE
  2
STANDARD
  9
$DIMCLRD
 70
     0
  9
$DIMCLRE
 70
     0
  9
$DIMCLRT
 70
     0
  9
$DIMTFAC
 40
1.0
  9
$DIMGAP
 40
0.09
  9
$DIMJUST
 70
     0
  9
$DIMSD1
 70
     0
  9
$DIMSD2
 70
     0
  9
$DIMTOLJ
 70
     1
  9
$DIMTZIN
 70
     0
  9
$DIMALTZ
 70
     0
  9
$DIMALTTZ
 70
     0
  9
$DIMFIT
 70
     3
  9
$DIMUPT
 70
     0
  9
$DIMUNIT
 70
     2
  9
$DIMDEC
 70
     4
  9
$DIMTDEC
 70
     4
  9
$DIMALTU
 70
     2
  9
$DIMALTTD
 70
     2
  9
$DIMTXSTY
  7
STANDARD
  9
$DIMAUNIT
 70
     0
  9
$LUNITS
 70
     2
  9
$LUPREC
 70
     4
  9
$SKETCHINC
 40
0.1
  9
$FILLETRAD
 40
0.0
  9
$AUNITS
 70
     0
  9
$AUPREC
 70
     0
  9
$MENU
  1
acad
  9
$ELEVATION
 40
0.0
  9
$PELEVATION
 40
0.0
  9
$THICKNESS
 40
0.0
  9
$LIMCHECK
 70
     0
  9
$BLIPMODE
 70
     0
  9
$CHAMFERA
 40
0.0
  9
$CHAMFERB
 40
0.0
  9
$CHAMFERC
 40
0.0
  9
$CHAMFERD
 40
0.0
  9
$SKPOLY
 70
     0
  9
$TDCREATE
 40
2444971.791666666
  9
$TDUPDATE
 40
2452297.066562500
  9
$TDINDWG
 40
0.0123656250
  9
$TDUSRTIMER
 40
0.0123656250
  9
$USRTIMER
 70
     1
  9
$ANGBASE
 50
0.0
  9
$ANGDIR
 70
     0
  9
$PDMODE
 70
     0
  9
$PDSIZE
 40
0.0
  9
$PLINEWID
 40
0.0
  9
$COORDS
 70
     2
  9
$SPLFRAME
 70
     0
  9
$SPLINETYPE
 70
     6
  9
$SPLINESEGS
 70
     8
  9
$ATTDIA
 70
     0
  9
$ATTREQ
 70
     1
  9
$HANDLING
 70
 22529
  9
$HANDSEED
  5
42B
  9
$SURFTAB1
 70
     6
  9
$SURFTAB2
 70
     6
  9
$SURFTYPE
 70
     6
  9
$SURFU
 70
     6
  9
$SURFV
 70
     6
  9
$UCSNAME
  2

  9
$UCSORG
 10
0.0
 20
0.0
 30
0.0
  9
$UCSXDIR
 10
1.0
 20
0.0
 30
0.0
  9
$UCSYDIR
 10
0.0
 20
1.0
 30
0.0
  9
$PUCSNAME
  2

  9
$PUCSORG
 10
0.0
 20
0.0
 30
0.0
  9
$PUCSXDIR
 10
1.0
 20
0.0
 30
0.0
  9
$PUCSYDIR
 10
0.0
 20
1.0
 30
0.0
  9
$USERI1
 70
     0
  9
$USERI2
 70
     0
  9
$USERI3
 70
     0
  9
$USERI4
 70
     0
  9
$USERI5
 70
     0
  9
$USERR1
 40
0.0
  9
$USERR2
 40
0.0
  9
$USERR3
 40
0.0
  9
$USERR4
 40
0.0
  9
$USERR5
 40
0.0
  9
$WORLDVIEW
 70
     1
  9
$SHADEDGE
 70
     3
  9
$SHADEDIF
 70
    70
  9
$TILEMODE
 70
     1
  9
$MAXACTVP
 70
    16
  9
$PINSBASE
 10
0.0
 20
0.0
 30
0.0
  9
$PLIMCHECK
 70
     0
  9
$PEXTMIN
 10
1.000000000000000E+20
 20
1.000000000000000E+20
 30
1.000000000000000E+20
  9
$PEXTMAX
 10
-1.000000000000000E+20
 20
-1.000000000000000E+20
 30
-1.000000000000000E+20
  9
$PLIMMIN
 10
0.0
 20
0.0
  9
$PLIMMAX
 10
12.0
 20
9.0
  9
$UNITMODE
 70
     0
  9
$VISRETAIN
 70
     0
  9
$PLINEGEN
 70
     0
  9
$PSLTSCALE
 70
     0
  9
$TREEDEPTH
 70
  3020
  9
$PICKSTYLE
 70
     1
  9
$CMLSTYLE
  2
STANDARD
  9
$CMLJUST
 70
     0
  9
$CMLSCALE
 40
1.0
  9
$PROXYGRAPHICS
 70
     1
  9
$MEASUREMENT
 70
     0
  0
ENDSEC
  0
SECTION
  2
CLASSES
  0
CLASS
  1
LWPOLYLINE
  2
AcDbPolyline
  3
AutoCAD 2000
 90
        0
280
     0
281
     1
  0
CLASS
  1
IMAGE
  2
AcDbRasterImage
  3
ISM
 90
      127
280
     0
281
     1
  0
CLASS
  1
OLE2FRAME
  2
AcDbOle2Frame
  3
AutoCAD 2000
 90
        0
280
     0
281
     1
  0
CLASS
  1
HATCH
  2
AcDbHatch
  3
AutoCAD 2000
 90
        0
280
     0
281
     1
  0
CLASS
  1
DICTIONARYVAR
  2
AcDbDictionaryVar
  3
AutoCAD 2000
 90
        0
280
     0
281
     0
  0
CLASS
  1
RASTERVARIABLES
  2
AcDbRasterVariables
  3
ISM
 90
        0
280
     0
281
     0
  0
CLASS
  1
IMAGEDEF
  2
AcDbRasterImageDef
  3
ISM
 90
        0
280
     0
281
     0
  0
CLASS
  1
IMAGEDEF_REACTOR
  2
AcDbRasterImageDefReactor
  3
ISM
 90
        1
280
     0
281
     0
  0
CLASS
  1
IDBUFFER
  2
AcDbIdBuffer
  3
AutoCAD 2000
 90
        0
280
     0
281
     0
  0
CLASS
  1
SPATIAL_FILTER
  2
AcDbSpatialFilter
  3
AutoCAD 2000
 90
        0
280
     0
281
     0
  0
CLASS
  1
XRECORD
  2
AcDbXrecord
  3
AutoCAD 2000
 90
        0
280
     0
281
     0
  0
CLASS
  1
SORTENTSTABLE
  2
AcDbSortentsTable
  3
AutoCAD 2000
 90
        0
280
     0
281
     0
  0
CLASS
  1
LAYER_INDEX
  2
AcDbLayerIndex
  3
AutoCAD 2000
 90
        0
280
     0
281
     0
  0
CLASS
  1
SPATIAL_INDEX
  2
AcDbSpatialIndex
  3
AutoCAD 2000
 90
        0
280
     0
281
     0
  0
CLASS
  1
OBJECT_PTR
  2
CAseDLPNTableRecord
  3
ASE-LPNTableRecord
 90
        1
280
     0
281
     0
  0
CLASS
  1
ACDBDICTIONARYWDFLT
  2
AcDbDictionaryWithDefault
  3
AutoCAD 2000
 90
        0
280
     0
281
     0
  0
CLASS
  1
ACDBPLACEHOLDER
  2
AcDbPlaceHolder
  3
AutoCAD 2000
 90
        0
280
     0
281
     0
  0
CLASS
  1
LAYOUT
  2
AcDbLayout
  3
AutoCAD 2000
 90
        0
280
     0
281
     0
  0
CLASS
  1
LONG_TRANSACTION
  2
AcDbLongTransaction
  3
AutoCAD 2000
 90
        0
280
     0
281
     0
  0
CLASS
  1
LWPOLYLINE
  2
AcDbPolyline
  3
AutoCAD 2000
 90
        0
280
     0
281
     1
  0
CLASS
  1
HATCH
  2
AcDbHatch
  3
AutoCAD 2000
 90
        0
280
     0
281
     1
  0
CLASS
  1
XRECORD
  2
AcDbXrecord
  3
AutoCAD 2000
 90
        0
280
     0
281
     0
  0
CLASS
  1
LONG_TRANSACTION
  2
AcDbLongTransaction
  3
AutoCAD 2000
 90
        0
280
     0
281
     0
  0
CLASS
  1
LWPOLYLINE
  2
AcDbPolyline
  3
AutoCAD 2000
 90
        0
280
     0
281
     1
  0
CLASS
  1
HATCH
  2
AcDbHatch
  3
AutoCAD 2000
 90
        0
280
     0
281
     1
  0
CLASS
  1
XRECORD
  2
AcDbXrecord
  3
AutoCAD 2000
 90
        0
280
     0
281
     0
  0
CLASS
  1
LONG_TRANSACTION
  2
AcDbLongTransaction
  3
AutoCAD 2000
 90
        0
280
     0
281
     0
  0
CLASS
  1
LWPOLYLINE
  2
AcDbPolyline
  3
AutoCAD 2000
 90
        0
280
     0
281
     1
  0
CLASS
  1
HATCH
  2
AcDbHatch
  3
AutoCAD 2000
 90
        0
280
     0
281
     1
  0
CLASS
  1
XRECORD
  2
AcDbXrecord
  3
AutoCAD 2000
 90
        0
280
     0
281
     0
  0
CLASS
  1
LONG_TRANSACTION
  2
AcDbLongTransaction
  3
AutoCAD 2000
 90
        0
280
     0
281
     0
  0
CLASS
  1
LWPOLYLINE
  2
AcDbPolyline
  3
AutoCAD 2000
 90
        0
280
     0
281
     1
  0
CLASS
  1
HATCH
  2
AcDbHatch
  3
AutoCAD 2000
 90
        0
280
     0
281
     1
  0
CLASS
  1
XRECORD
  2
AcDbXrecord
  3
AutoCAD 2000
 90
        0
280
     0
281
     0
  0
CLASS
  1
LONG_TRANSACTION
  2
AcDbLongTransaction
  3
AutoCAD 2000
 90
        0
280
     0
281
     0
  0
CLASS
  1
LWPOLYLINE
  2
AcDbPolyline
  3
AutoCAD 2000
 90
        0
280
     0
281
     1
  0
CLASS
  1
HATCH
  2
AcDbHatch
  3
AutoCAD 2000
 90
        0
280
     0
281
     1
  0
CLASS
  1
XRECORD
  2
AcDbXrecord
  3
AutoCAD 2000
 90
        0
280
     0
281
     0
  0
CLASS
  1
LONG_TRANSACTION
  2
AcDbLongTransaction
  3
AutoCAD 2000
 90
        0
280
     0
281
     0
  0
CLASS
  1
LWPOLYLINE
  2
AcDbPolyline
  3
AutoCAD 2000
 90
        0
280
     0
281
     1
  0
CLASS
  1
HATCH
  2
AcDbHatch
  3
AutoCAD 2000
 90
        0
280
     0
281
     1
  0
CLASS
  1
XRECORD
  2
AcDbXrecord
  3
AutoCAD 2000
 90
        0
280
     0
281
     0
  0
ENDSEC
  0
SECTION
  2
TABLES
  0
TABLE
  2
VPORT
  5
7
330
0
100
AcDbSymbolTable
 70
     3
  0
VPORT
  5
2E
330
7
100
AcDbSymbolTableRecord
100
AcDbViewportTableRecord
  2
DCADVPORT
 70
     0
 10
20.85014061331113
 20
5.087826564266611
 11
28.73766527692745
 21
8.853986285666284
 12
6.209999999999999
 22
9.019999999999999
 13
0.0
 23
0.0
 14
1.0
 24
1.0
 15
0.0
 25
0.0
 16
0.0
 26
0.0
 36
1.0
 17
0.0
 27
0.0
 37
0.0
 40
18.04
 41
0.688564
 42
50.0
 43
1.0
 44
1.0
 50
0.0
 51
0.0
 71
     0
 72
   100
 73
     1
 74
     1
 75
     0
 76
     0
 77
     0
 78
     0
  0
VPORT
  5
408
330
7
100
AcDbSymbolTableRecord
100
AcDbViewportTableRecord
  2
*ACTIVE
 70
     0
 10
0.0
 20
0.0
 11
1.0
 21
1.0
 12
24.83113173158327
 22
6.377964209394209
 13
0.0
 23
0.0
 14
1.0
 24
1.0
 15
0.0
 25
0.0
 16
0.0
 26
0.0
 36
1.0
 17
0.0
 27
0.0
 37
0.0
 40
8.265901039208342
 41
1.570528967254408
 42
50.0
 43
0.0
 44
0.0
 50
0.0
 51
0.0
 71
     0
 72
   100
 73
     1
 74
     1
 75
     0
 76
     0
 77
     0
 78
     0
  0
ENDTAB
  0
TABLE
  2
LTYPE
  5
4
330
0
100
AcDbSymbolTable
 70
     2
  0
LTYPE
  5
11
330
4
100
AcDbSymbolTableRecord
100
AcDbLinetypeTableRecord
  2
BYBLOCK
 70
     0
  3

 72
    65
 73
     0
 40
0.0
  0
LTYPE
  5
12
330
4
100
AcDbSymbolTableRecord
100
AcDbLinetypeTableRecord
  2
BYLAYER
 70
     0
  3

 72
    65
 73
     0
 40
0.0
  0
LTYPE
  5
13
330
4
100
AcDbSymbolTableRecord
100
AcDbLinetypeTableRecord
  2
CONTINUOUS
 70
     0
  3
Solid line
 72
    65
 73
     0
 40
0.0
  0
LTYPE
  5
1E
330
4
100
AcDbSymbolTableRecord
100
AcDbLinetypeTableRecord
  2
CONTINUOUS
 70
     0
  3
Solid line
 72
    65
 73
     0
 40
0.0
  0
ENDTAB
  0
TABLE
  2
LAYER
  5
2
330
0
100
AcDbSymbolTable
 70
     5
  0
LAYER
  5
14
330
2
100
AcDbSymbolTableRecord
100
AcDbLayerTableRecord
  2
0
 70
     0
 62
     7
  6
CONTINUOUS
  0
LAYER
  5
2A
330
2
100
AcDbSymbolTableRecord
100
AcDbLayerTableRecord
  2
ADP1DETAIL
 70
     0
 62
   250
  6
CONTINUOUS
  0
LAYER
  5
2B
330
2
100
AcDbSymbolTableRecord
100
AcDbLayerTableRecord
  2
DEFPOINTS
 70
     0
 62
   250
  6
CONTINUOUS
  0
LAYER
  5
2C
330
2
100
AcDbSymbolTableRecord
100
AcDbLayerTableRecord
  2
ADPDIM
 70
     0
 62
     3
  6
CONTINUOUS
  0
LAYER
  5
2D
330
2
100
AcDbSymbolTableRecord
100
AcDbLayerTableRecord
  2
ADP2DETAIL
 70
     0
 62
   250
  6
CONTINUOUS
  0
ENDTAB
  0
TABLE
  2
STYLE
  5
3
330
0
100
AcDbSymbolTable
 70
     2
  0
STYLE
  5
17
330
3
100
AcDbSymbolTableRecord
100
AcDbTextStyleTableRecord
  2
STANDARD
 70
     0
 40
0.0
 41
1.0
 50
0.0
 71
     0
 42
0.0
  3
txt
  4

  0
STYLE
  5
29F
330
3
100
AcDbSymbolTableRecord
100
AcDbTextStyleTableRecord
  2
ARIAL_WIDE
 70
     0
 40
0.0
 41
1.25
 50
0.0
 71
     0
 42
0.2
  3
ARIAL.TTF
  4

1001
ACAD
1000
Arial
1071
       34
  0
ENDTAB
  0
TABLE
  2
VIEW
  5
5
330
0
100
AcDbSymbolTable
 70
     0
  0
ENDTAB
  0
TABLE
  2
UCS
  5
6
330
0
100
AcDbSymbolTable
 70
     0
  0
ENDTAB
  0
TABLE
  2
APPID
  5
8
330
0
100
AcDbSymbolTable
 70
     1
  0
APPID
  5
16
330
8
100
AcDbSymbolTableRecord
100
AcDbRegAppTableRecord
  2
ACAD
 70
     0
  0
ENDTAB
  0
TABLE
  2
DIMSTYLE
  5
9
330
0
100
AcDbSymbolTable
 70
     1
  0
DIMSTYLE
105
18
330
9
100
AcDbSymbolTableRecord
100
AcDbDimStyleTableRecord
  2
STANDARD
 70
     0
  3

  4

  5

  6

  7

 40
1.0
 41
0.18
 42
0.0625
 43
0.38
 44
0.18
 45
0.0
 46
0.0
 47
0.0
 48
0.0
140
0.18
141
0.09
142
0.0
143
25.4
144
1.0
145
0.0
146
1.0
147
0.09
 71
     0
 72
     0
 73
     1
 74
     1
 75
     0
 76
     0
 77
     0
 78
     0
170
     0
171
     2
172
     0
173
     0
174
     0
175
     0
176
     0
177
     0
178
     0
270
     2
271
     4
272
     4
273
     2
274
     2
340
17
275
     0
280
     0
281
     0
282
     0
283
     1
284
     0
285
     0
286
     0
287
     0
288
     0
  0
ENDTAB
  0
TABLE
  2
BLOCK_RECORD
  5
1
330
0
100
AcDbSymbolTable
 70
     0
  0
BLOCK_RECORD
  5
A
102
{ACAD_XDICTIONARY
360
2FA
102
}
330
1
100
AcDbSymbolTableRecord
100
AcDbBlockTableRecord
  2
*MODEL_SPACE
  0
BLOCK_RECORD
  5
B
102
{ACAD_XDICTIONARY
360
2FC
102
}
330
1
100
AcDbSymbolTableRecord
100
AcDbBlockTableRecord
  2
*PAPER_SPACE
  0
ENDTAB
  0
ENDSEC
  0
SECTION
  2
BLOCKS
  0
BLOCK
  5
D
330
A
100
AcDbEntity
  8
0
100
AcDbBlockBegin
  2
*MODEL_SPACE
 70
     0
 10
0.0
 20
0.0
 30
0.0
  3
*MODEL_SPACE
  1

  0
ENDBLK
  5
E
330
A
100
AcDbEntity
  8
0
100
AcDbBlockEnd
  0
BLOCK
  5
F
330
B
100
AcDbEntity
 67
     1
  8
0
100
AcDbBlockBegin
  2
*PAPER_SPACE
 70
     0
 10
0.0
 20
0.0
 30
0.0
  3
*PAPER_SPACE
  1

  0
ENDBLK
  5
10
330
B
100
AcDbEntity
 67
     1
  8
0
100
AcDbBlockEnd
  0
ENDSEC
  0
SECTION
  2
ENTITIES
  0
LWPOLYLINE
  5
2F
330
A
100
AcDbEntity
  8
ADP1DETAIL
  6
CONTINUOUS
 62
     7
100
AcDbPolyline
 90
        2
 70
   128
 43
0.0
 10
20.97514061331112
 20
5.18503407923086
 10
20.97514061331112
 20
8.159418551102771
  0
LWPOLYLINE
  5
33
330
A
100
AcDbEntity
  8
ADP1DETAIL
  6
CONTINUOUS
 62
     7
100
AcDbPolyline
 90
        2
 70
   128
 43
0.0
 10
21.22514061331112
 20
8.061318177969738
 10
21.22514061331112
 20
5.97107135419051
  0
LWPOLYLINE
  5
37
330
A
100
AcDbEntity
  8
ADP1DETAIL
  6
CONTINUOUS
 62
     7
100
AcDbPolyline
 90
        2
 70
   128
 43
0.0
 10
21.85004101935775
 20
6.26872877237924
 10
21.85014061331112
 20
6.672226315166813
  0
LWPOLYLINE
  5
3B
330
A
100
AcDbEntity
  8
ADP1DETAIL
  6
CONTINUOUS
 62
     7
100
AcDbPolyline
 90
        2
 70
   128
 43
0.0
 10
21.72514061331113
 20
6.672226315166813
 10
21.72514061331113
 20
6.234726315166813
  0
LWPOLYLINE
  5
3F
330
A
100
AcDbEntity
  8
ADP1DETAIL
  6
CONTINUOUS
 62
     7
100
AcDbPolyline
 90
        2
 70
   128
 43
0.0
 10
21.72514061331113
 20
7.16441855110277
 10
21.72514061331113
 20
6.180034079230857
  0
LWPOLYLINE
  5
43
330
A
100
AcDbEntity
  8
ADP1DETAIL
  6
CONTINUOUS
 62
     7
100
AcDbPolyline
 90
        2
 70
   128
 43
0.0
 10
22.83881403850258
 20
6.357155909801065
 10
21.85014061331112
 20
6.297226315166813
  0
LWPOLYLINE
  5
47
330
A
100
AcDbEntity
  8
ADP1DETAIL
  6
CONTINUOUS
 62
     7
100
AcDbPolyline
 90
        2
 70
   128
 43
0.0
 10
21.22514061331112
 20
5.998818177969742
 10
21.22514061331112
 20
5.283134452363889
  0
ARC
  5
4B
330
A
100
AcDbEntity
  8
ADP1DETAIL
  6
CONTINUOUS
 62
     7
100
AcDbCircle
 10
-21.16314061331112
 20
5.283134452363889
 30
0.0
 40
0.0620000000000001
210
0.0
220
0.0
230
-1.0
100
AcDbArc
 50
180.0
 51
255.9637565320729
  0
LWPOLYLINE
  5
4C
330
A
100
AcDbEntity
  8
ADP1DETAIL
  6
CONTINUOUS
 62
     7
100
AcDbPolyline
 90
        2
 70
   128
 43
0.0
 10
21.17817782206337
 20
5.222985617354879
 10
20.98756596956149
 20
5.175332654229407
  0
ARC
  5
50
330
A
100
AcDbEntity
  8
ADP1DETAIL
  6
CONTINUOUS
 62
     7
100
AcDbCircle
 10
-20.98514061331112
 20
5.18503407923086
 30
0.0
 40
0.0100000000000016
210
0.0
220
0.0
230
-1.0
100
AcDbArc
 50
255.9637565320755
 51
360.0000000000008
  0
ARC
  5
51
330
A
100
AcDbEntity
  8
ADP1DETAIL
  6
CONTINUOUS
 62
     7
100
AcDbCircle
 10
-21.28714061331112
 20
5.998818177969742
 30
0.0
 40
0.0620000000000001
210
0.0
220
0.0
230
-1.0
100
AcDbArc
 50
0.0
 51
75.96375653207212
  0
LWPOLYLINE
  5
52
330
A
100
AcDbEntity
  8
ADP1DETAIL
  6
CONTINUOUS
 62
     7
100
AcDbPolyline
 90
        2
 70
   128
 43
0.0
 10
21.71756596956149
 20
6.170332654229405
 10
21.27210340455887
 20
6.058967012978754
  0
ARC
  5
56
330
A
100
AcDbEntity
  8
ADP1DETAIL
  6
CONTINUOUS
 62
     7
100
AcDbCircle
 10
-21.71514061331113
 20
6.180034079230857
 30
0.0
 40
0.01
210
0.0
220
0.0
230
-1.0
100
AcDbArc
 50
180.0
 51
255.9637565320755
  0
LWPOLYLINE
  5
57
330
A
100
AcDbEntity
  8
ADP1DETAIL
  6
CONTINUOUS
 62
     7
100
AcDbPolyline
 90
        2
 70
   128
 43
0.0
 10
21.72514061331113
 20
6.234726315166813
 10
21.85004101935775
 20
6.26872877237924
  0
LWPOLYLINE
  5
5B
330
A
100
AcDbEntity
  8
ADP1DETAIL
  6
CONTINUOUS
 62
     7
100
AcDbPolyline
 90
        2
 70
   128
 43
0.0
 10
21.85014061331112
 20
7.047226315166813
 10
22.81917720122471
 20
6.972445765656019
  0
ARC
  5
5F
330
A
100
AcDbEntity
  8
ADP1DETAIL
  6
CONTINUOUS
 62
     7
100
AcDbCircle
 10
-21.28714061331112
 20
7.345634452363889
 30
0.0
 40
0.0620000000000012
210
0.0
220
0.0
230
-1.0
100
AcDbArc
 50
284.0362434679286
 51
360.0000000000008
  0
LWPOLYLINE
  5
60
330
A
100
AcDbEntity
  8
ADP1DETAIL
  6
CONTINUOUS
 62
     7
100
AcDbPolyline
 90
        2
 70
   128
 43
0.0
 10
21.85004101935775
 20
7.07572385795439
 10
21.85014061331112
 20
6.672226315166813
  0
LWPOLYLINE
  5
64
330
A
100
AcDbEntity
  8
ADP1DETAIL
  6
CONTINUOUS
 62
     7
100
AcDbPolyline
 90
        2
 70
   128
 43
0.0
 10
21.27210340455887
 20
7.285485617354876
 10
21.71756596956149
 20
7.174119976104222
  0
ARC
  5
68
330
A
100
AcDbEntity
  8
ADP1DETAIL
  6
CONTINUOUS
 62
     7
100
AcDbCircle
 10
-21.71514061331113
 20
7.16441855110277
 30
0.0
 40
0.0100000000000016
210
0.0
220
0.0
230
-1.0
100
AcDbArc
 50
104.0362434679252
 51
180.0
  0
LWPOLYLINE
  5
69
330
A
100
AcDbEntity
  8
ADP1DETAIL
  6
CONTINUOUS
 62
     7
100
AcDbPolyline
 90
        2
 70
   128
 43
0.0
 10
21.72514061331113
 20
6.672226315166813
 10
21.72514061331113
 20
7.109726315166813
  0
LWPOLYLINE
  5
6D
330
A
100
AcDbEntity
  8
ADP1DETAIL
  6
CONTINUOUS
 62
     7
100
AcDbPolyline
 90
        2
 70
   128
 43
0.0
 10
21.72514061331113
 20
7.109726315166813
 10
21.85004101935775
 20
7.07572385795439
  0
ARC
  5
71
330
A
100
AcDbEntity
  8
ADP1DETAIL
  6
CONTINUOUS
 62
     7
100
AcDbCircle
 10
-21.16314061331112
 20
8.061318177969738
 30
0.0
 40
0.0620000000000012
210
0.0
220
0.0
230
-1.0
100
AcDbArc
 50
104.0362434679276
 51
180.0
  0
LWPOLYLINE
  5
72
330
A
100
AcDbEntity
  8
ADP1DETAIL
  6
CONTINUOUS
 62
     7
100
AcDbPolyline
 90
        2
 70
   128
 43
0.0
 10
20.98756596956149
 20
8.169119976104223
 10
21.17817782206337
 20
8.121467012978751
  0
ARC
  5
76
330
A
100
AcDbEntity
  8
ADP1DETAIL
  6
CONTINUOUS
 62
     7
100
AcDbCircle
 10
-20.98514061331112
 20
8.159418551102771
 30
0.0
 40
0.0099999999999991
210
0.0
220
0.0
230
-1.0
100
AcDbArc
 50
0.0
 51
104.0362434679264
  0
LWPOLYLINE
  5
77
330
A
100
AcDbEntity
  8
ADPDIM
  6
CONTINUOUS
 62
     3
 48
0.125
100
AcDbPolyline
 90
        2
 70
   128
 43
0.0
 10
23.85014061331113
 20
6.68503407923086
 10
24.40514061331112
 20
6.68503407923086
  0
LWPOLYLINE
  5
7B
330
A
100
AcDbEntity
  8
ADPDIM
  6
CONTINUOUS
 62
     3
 48
0.125
100
AcDbPolyline
 90
        2
 70
   128
 43
0.0
 10
23.53764061331113
 20
7.74753407923086
 10
24.40514061331112
 20
7.74753407923086
  0
LWPOLYLINE
  5
7F
330
A
100
AcDbEntity
  8
ADPDIM
  6
CONTINUOUS
 62
     3
 48
0.125
100
AcDbPolyline
 90
        2
 70
   128
 43
0.0
 10
24.22514061331113
 20
6.68503407923086
 10
24.22514061331113
 20
6.43503407923086
  0
LWPOLYLINE
  5
83
330
A
100
AcDbEntity
  8
ADPDIM
  6
CONTINUOUS
 62
     3
 48
0.125
100
AcDbPolyline
 90
        2
 70
   128
 43
0.0
 10
24.22514061331113
 20
7.74753407923086
 10
24.22514061331113
 20
7.99753407923086
  0
LWPOLYLINE
  5
87
330
A
100
AcDbEntity
  8
ADPDIM
  6
CONTINUOUS
 62
     3
 48
0.125
100
AcDbPolyline
 90
        2
 70
   128
 43
0.0
 10
24.35014061331113
 20
6.56003407923086
 10
24.10014061331112
 20
6.81003407923086
  0
LWPOLYLINE
  5
8B
330
A
100
AcDbEntity
  8
ADPDIM
  6
CONTINUOUS
 62
     3
 48
0.125
100
AcDbPolyline
 90
        2
 70
   128
 43
0.0
 10
24.35014061331113
 20
7.62253407923086
 10
24.10014061331112
 20
7.87253407923086
  0
TEXT
  5
8F
330
A
100
AcDbEntity
  8
ADPDIM
 62
     3
 48
0.0
100
AcDbText
 10
24.28764061331113
 20
8.12253407923086
 30
0.0
 40
0.125
  1
1 1/16
 50
90.0
 72
     5
 11
24.28764061331113
 21
8.705867412564192
 31
0.0
100
AcDbText
  0
LWPOLYLINE
  5
90
330
A
100
AcDbEntity
  8
ADPDIM
  6
CONTINUOUS
 62
     3
 48
0.125
100
AcDbPolyline
 90
        2
 70
   128
 43
0.0
 10
20.97514061331112
 20
8.24753407923086
 10
20.97514061331112
 20
8.677534079230859
  0
LWPOLYLINE
  5
94
330
A
100
AcDbEntity
  8
ADPDIM
  6
CONTINUOUS
 62
     3
 48
0.125
100
AcDbPolyline
 90
        2
 70
   128
 43
0.0
 10
23.22514061331113
 20
7.93503407923086
 10
23.22514061331113
 20
8.677534079230859
  0
LWPOLYLINE
  5
98
330
A
100
AcDbEntity
  8
ADPDIM
  6
CONTINUOUS
 62
     3
 48
0.125
100
AcDbPolyline
 90
        2
 70
   128
 43
0.0
 10
20.97514061331112
 20
8.49753407923086
 10
21.70430727997779
 20
8.49753407923086
  0
LWPOLYLINE
  5
9C
330
A
100
AcDbEntity
  8
ADPDIM
  6
CONTINUOUS
 62
     3
 48
0.125
100
AcDbPolyline
 90
        2
 70
   128
 43
0.0
 10
23.22514061331113
 20
8.49753407923086
 10
22.49597394664446
 20
8.49753407923086
  0
LWPOLYLINE
  5
A0
330
A
100
AcDbEntity
  8
ADPDIM
  6
CONTINUOUS
 62
     3
 48
0.125
100
AcDbPolyline
 90
        2
 70
   128
 43
0.0
 10
20.85014061331113
 20
8.37253407923086
 10
21.10014061331113
 20
8.62253407923086
  0
LWPOLYLINE
  5
A4
330
A
100
AcDbEntity
  8
ADPDIM
  6
CONTINUOUS
 62
     3
 48
0.125
100
AcDbPolyline
 90
        2
 70
   128
 43
0.0
 10
23.10014061331112
 20
8.37253407923086
 10
23.35014061331113
 20
8.62253407923086
  0
TEXT
  5
A8
330
A
100
AcDbEntity
  8
ADPDIM
 62
     3
 48
0.0
100
AcDbText
 10
21.82930727997779
 20
8.43503407923086
 30
0.0
 40
0.125
  1
2 1/4
 72
     5
 11
22.37097394664446
 21
8.43503407923086
 31
0.0
100
AcDbText
  0
LWPOLYLINE
  5
A9
330
A
100
AcDbEntity
  8
ADPDIM
  6
CONTINUOUS
 62
     3
 48
0.125
100
AcDbPolyline
 90
        2
 70
   128
 43
0.0
 10
26.20088906563678
 20
5.551259042481939
 10
26.02742511994725
 20
5.371230545999249
  0
LWPOLYLINE
  5
AD
330
A
100
AcDbEntity
  8
ADPDIM
  6
CONTINUOUS
 62
     3
 48
0.125
100
AcDbPolyline
 90
        2
 70
   128
 43
0.0
 10
26.20417134103336
 20
5.374512821395826
 10
26.19760679024021
 20
5.728005263568052
  0
LWPOLYLINE
  5
B1
330
A
100
AcDbEntity
  8
ADPDIM
  6
CONTINUOUS
 62
     7
 48
0.125
100
AcDbPolyline
 90
        2
 70
   128
 43
0.0
 10
27.054172739774
 20
6.631430021378081
 10
27.42917273977401
 20
6.631430021378081
  0
LWPOLYLINE
  5
B5
330
A
100
AcDbEntity
  8
ADPDIM
  6
CONTINUOUS
 62
     7
 48
0.125
100
AcDbPolyline
 90
        2
 70
   128
 43
0.0
 10
27.241672739774
 20
6.443930021378081
 10
27.241672739774
 20
6.818930021378081
  0
TEXT
  5
B9
330
A
100
AcDbEntity
  8
ADPDIM
 62
     3
 48
0.0
100
AcDbText
 10
25.84114698314854
 20
5.087826564266611
 30
0.0
 40
0.1250000000000006
  1
%%c3
 50
46.06389212855821
 72
     5
 11
25.98570027122315
 21
5.237850311335519
 31
0.0
100
AcDbText
  0
ARC
  5
BA
330
A
100
AcDbEntity
  8
ADP1DETAIL
  6
CONTINUOUS
 62
     7
 48
0.125
100
AcDbCircle
 10
-27.241672739774
 20
6.631430021378079
 30
0.0
 40
1.415949078414779
210
0.0
220
0.0
230
-1.0
100
AcDbArc
 50
141.6952650067843
 51
38.30473499321567
  0
ARC
  5
BB
330
A
100
AcDbEntity
  8
ADP1DETAIL
  6
CONTINUOUS
 62
     7
 48
0.125
100
AcDbCircle
 10
-27.241672739774
 20
6.631430021378079
 30
0.0
 40
1.5
210
0.0
220
0.0
230
-1.0
100
AcDbArc
 50
144.1891266479681
 51
35.81087335203191
  0
LWPOLYLINE
  5
BC
330
A
100
AcDbEntity
  8
ADPDIM
  6
CONTINUOUS
 62
     3
 48
0.125
100
AcDbPolyline
 90
        2
 70
   128
 43
0.0
 10
25.92867273977401
 20
7.708193993530128
 10
25.09125079385681
 20
7.708193993530128
  0
LWPOLYLINE
  5
C0
330
A
100
AcDbEntity
  8
ADPDIM
  6
CONTINUOUS
 62
     3
 48
0.125
100
AcDbPolyline
 90
        2
 70
   128
 43
0.0
 10
26.88541209658043
 20
6.641335285948329
 10
25.09125079385681
 20
6.631430021378081
  0
LWPOLYLINE
  5
C4
330
A
100
AcDbEntity
  8
ADPDIM
  6
CONTINUOUS
 62
     3
 48
0.125
100
AcDbPolyline
 90
        2
 70
   128
 43
0.0
 10
25.27125079385681
 20
7.708193993530128
 10
25.27125079385681
 20
7.958193993530128
  0
LWPOLYLINE
  5
C8
330
A
100
AcDbEntity
  8
ADPDIM
  6
CONTINUOUS
 62
     3
 48
0.125
100
AcDbPolyline
 90
        2
 70
   128
 43
0.0
 10
25.27125079385681
 20
6.631430021378081
 10
25.27125079385681
 20
6.381430021378081
  0
LWPOLYLINE
  5
CC
330
A
100
AcDbEntity
  8
ADPDIM
  6
CONTINUOUS
 62
     3
 48
0.125
100
AcDbPolyline
 90
        2
 70
   128
 43
0.0
 10
25.39625079385681
 20
7.583193993530128
 10
25.14625079385681
 20
7.833193993530128
  0
LWPOLYLINE
  5
D0
330
A
100
AcDbEntity
  8
ADPDIM
  6
CONTINUOUS
 62
     3
 48
0.125
100
AcDbPolyline
 90
        2
 70
   128
 43
0.0
 10
25.39625079385681
 20
6.506430021378081
 10
25.14625079385681
 20
6.756430021378081
  0
TEXT
  5
D4
330
A
100
AcDbEntity
  8
ADPDIM
 62
     3
 48
0.0
100
AcDbText
 10
25.33375079385681
 20
5.673096688044747
 30
0.0
 40
0.125
  1
1 1/16
 50
90.0
 72
     5
 11
25.33375079385681
 21
6.256430021378081
 31
0.0
100
AcDbText
  0
LWPOLYLINE
  5
D5
330
A
100
AcDbEntity
  8
ADPDIM
  6
CONTINUOUS
 62
     3
 48
0.125
100
AcDbPolyline
 90
        2
 70
   128
 43
0.0
 10
22.84916750988084
 20
6.224297077869554
 10
22.84916750988084
 20
5.794337269810194
  0
LWPOLYLINE
  5
D9
330
A
100
AcDbEntity
  8
ADPDIM
  6
CONTINUOUS
 62
     7
 48
0.125
100
AcDbPolyline
 90
        2
 70
   128
 43
0.0
 10
23.59916750988083
 20
6.224297077869554
 10
23.59916750988083
 20
5.794337269810194
  0
LWPOLYLINE
  5
DD
330
A
100
AcDbEntity
  8
ADPDIM
  6
CONTINUOUS
 62
     3
 48
0.125
100
AcDbPolyline
 90
        2
 70
   128
 43
0.0
 10
22.84916750988084
 20
5.974337269810193
 10
22.59916750988084
 20
5.974337269810193
  0
LWPOLYLINE
  5
E1
330
A
100
AcDbEntity
  8
ADPDIM
  6
CONTINUOUS
 62
     7
 48
0.125
100
AcDbPolyline
 90
        2
 70
   128
 43
0.0
 10
23.59916750988083
 20
5.974337269810193
 10
23.84916750988084
 20
5.974337269810193
  0
LWPOLYLINE
  5
E5
330
A
100
AcDbEntity
  8
ADPDIM
  6
CONTINUOUS
 62
     3
 48
0.125
100
AcDbPolyline
 90
        2
 70
   128
 43
0.0
 10
22.72416750988083
 20
5.849337269810193
 10
22.97416750988083
 20
6.099337269810193
  0
LWPOLYLINE
  5
E9
330
A
100
AcDbEntity
  8
ADPDIM
  6
CONTINUOUS
 62
     7
 48
0.125
100
AcDbPolyline
 90
        2
 70
   128
 43
0.0
 10
23.47416750988084
 20
5.849337269810193
 10
23.72416750988084
 20
6.099337269810193
  0
TEXT
  5
ED
330
A
100
AcDbEntity
  8
ADPDIM
 62
     3
 48
0.0
100
AcDbText
 10
23.97416750988083
 20
5.911837269810193
 30
0.0
 40
0.125
  1
3/4
 72
     5
 11
24.30750084321417
 21
5.911837269810193
 31
0.0
100
AcDbText
  0
LWPOLYLINE
  5
EE
330
A
100
AcDbEntity
  8
ADP1DETAIL
  6
CONTINUOUS
 62
     7
 48
0.125
100
AcDbPolyline
 90
        2
 70
   128
 43
0.0
 10
23.72416750988084
 20
6.384011558672401
 10
23.72416750988084
 20
6.662297077869553
  0
ARC
  5
F2
330
A
100
AcDbEntity
  8
ADP1DETAIL
  6
CONTINUOUS
 62
     7
 48
0.125
100
AcDbCircle
 10
-24.42062796805859
 20
6.662297077869553
 30
0.0
 40
0.75
210
0.0
220
0.0
230
-1.0
100
AcDbArc
 50
338.2197748746756
 51
360.0000000000008
  0
LWPOLYLINE
  5
F3
330
A
100
AcDbEntity
  8
ADP1DETAIL
  6
CONTINUOUS
 62
     7
 48
0.125
100
AcDbPolyline
 90
        2
 70
   128
 43
0.0
 10
23.72416750988084
 20
6.384011558672401
 10
23.72416750988084
 20
6.662297077869553
  0
LWPOLYLINE
  5
F7
330
A
100
AcDbEntity
  8
ADP1DETAIL
  6
CONTINUOUS
 62
     7
 48
0.125
100
AcDbPolyline
 90
        2
 70
   128
 43
0.0
 10
23.59916750988083
 20
6.849797077869553
 10
23.59916750988083
 20
6.474797077869553
  0
LWPOLYLINE
  5
FB
330
A
100
AcDbEntity
  8
ADP1DETAIL
  6
CONTINUOUS
 62
     7
 48
0.125
100
AcDbPolyline
 90
        2
 70
   128
 43
0.0
 10
23.59916750988083
 20
6.849797077869553
 10
23.59916750988083
 20
6.474797077869553
  0
LWPOLYLINE
  5
FF
330
A
100
AcDbEntity
  8
ADP1DETAIL
  6
CONTINUOUS
 62
     7
 48
0.125
100
AcDbPolyline
 90
        2
 70
   128
 43
0.0
 10
22.84916750988084
 20
6.474797077869553
 10
22.84916750988084
 20
6.849797077869553
  0
LWPOLYLINE
  5
103
330
A
100
AcDbEntity
  8
ADP1DETAIL
  6
CONTINUOUS
 62
     7
 48
0.125
100
AcDbPolyline
 90
        2
 70
   128
 43
0.0
 10
22.84916750988084
 20
6.974797077869554
 10
22.84916750988084
 20
6.349797077869553
  0
LWPOLYLINE
  5
107
330
A
100
AcDbEntity
  8
ADP1DETAIL
  6
CONTINUOUS
 62
     7
 48
0.125
100
AcDbPolyline
 90
        2
 70
   128
 43
0.0
 10
22.84916750988084
 20
6.974797077869554
 10
22.84916750988084
 20
6.349797077869553
  0
LWPOLYLINE
  5
10B
330
A
100
AcDbEntity
  8
ADP1DETAIL
  6
CONTINUOUS
 62
     7
 48
0.125
100
AcDbPolyline
 90
        2
 70
   128
 43
0.0
 10
22.84916750988084
 20
6.474797077869553
 10
22.84916750988084
 20
6.849797077869553
  0
LWPOLYLINE
  5
10F
330
A
100
AcDbEntity
  8
ADP1DETAIL
  6
CONTINUOUS
 62
     7
 48
0.125
100
AcDbPolyline
 90
        5
 70
   128
 43
0.0
 10
22.84916750988084
 20
6.286797077869554
 10
22.84916750988084
 20
7.724297077869555
 10
23.59916750988083
 20
7.724297077869555
 10
23.59916750988083
 20
6.286797077869554
 10
22.84916750988084
 20
6.286797077869554
  0
ARC
  5
116
330
A
100
AcDbEntity
  8
ADP2DETAIL
  6
CONTINUOUS
 62
     5
 48
0.125
100
AcDbCircle
 10
-24.42062796805859
 20
6.662297077869553
 30
0.0
 40
0.75
210
0.0
220
0.0
230
-1.0
100
AcDbArc
 50
338.2197748746756
 51
360.0000000000008
  0
LWPOLYLINE
  5
117
330
A
100
AcDbEntity
  8
ADP1DETAIL
  6
CONTINUOUS
 62
     7
 48
0.125
100
AcDbPolyline
 90
        2
 70
   128
 43
0.0
 10
23.59916750988083
 20
6.349797077869553
 10
23.71990823816697
 20
6.38214945850737
  0
LWPOLYLINE
  5
11B
330
A
100
AcDbEntity
  8
ADP1DETAIL
  6
CONTINUOUS
 62
     7
 48
0.125
100
AcDbPolyline
 90
        2
 70
   128
 43
0.0
 10
23.59916750988083
 20
6.349797077869553
 10
23.71990823816697
 20
6.38214945850737
  0
LWPOLYLINE
  5
11F
330
A
100
AcDbEntity
  8
ADP1DETAIL
  6
CONTINUOUS
 62
     7
 48
0.125
100
AcDbPolyline
 90
        2
 70
   128
 43
0.0
 10
23.59916750988083
 20
6.474797077869553
 10
23.59916750988083
 20
6.349797077869553
  0
LWPOLYLINE
  5
123
330
A
100
AcDbEntity
  8
ADP1DETAIL
  6
CONTINUOUS
 62
     7
 48
0.125
100
AcDbPolyline
 90
        2
 70
   128
 43
0.0
 10
23.59916750988083
 20
6.474797077869553
 10
23.59916750988083
 20
6.349797077869553
  0
LWPOLYLINE
  5
127
330
A
100
AcDbEntity
  8
ADP1DETAIL
  6
CONTINUOUS
 62
     7
 48
0.125
100
AcDbPolyline
 90
        2
 70
   128
 43
0.0
 10
23.71990823816697
 20
6.38214945850737
 10
23.71990823816697
 20
6.38214945850737
  0
LWPOLYLINE
  5
12B
330
A
100
AcDbEntity
  8
ADP1DETAIL
  6
CONTINUOUS
 62
     7
 48
0.125
100
AcDbPolyline
 90
        2
 70
   128
 43
0.0
 10
23.71990823816697
 20
6.38214945850737
 10
23.71990823816697
 20
6.38214945850737
  0
LWPOLYLINE
  5
12F
330
A
100
AcDbEntity
  8
ADP1DETAIL
  6
CONTINUOUS
 62
     7
 48
0.125
100
AcDbPolyline
 90
        2
 70
   128
 43
0.0
 10
23.59916750988083
 20
7.536297077869556
 10
22.84916750988084
 20
7.536297077869556
  0
LWPOLYLINE
  5
133
330
A
100
AcDbEntity
  8
ADP2DETAIL
  6
CONTINUOUS
 62
     5
 48
0.125
100
AcDbPolyline
 90
        2
 70
   128
 43
0.0
 10
23.31816750988084
 20
7.597293676806381
 10
23.38016750988084
 20
7.535293676806383
  0
LWPOLYLINE
  5
137
330
A
100
AcDbEntity
  8
ADP2DETAIL
  6
CONTINUOUS
 62
     5
 48
0.125
100
AcDbPolyline
 90
        2
 70
   128
 43
0.0
 10
23.13016750988084
 20
7.597293676806381
 10
23.06816750988084
 20
7.535293676806383
  0
LWPOLYLINE
  5
13B
330
A
100
AcDbEntity
  8
ADP2DETAIL
  6
CONTINUOUS
 62
     5
 48
0.125
100
AcDbPolyline
 90
        2
 70
   128
 43
0.0
 10
23.13016750988084
 20
7.722293676806381
 10
23.13016750988084
 20
7.597293676806381
  0
LWPOLYLINE
  5
13F
330
A
100
AcDbEntity
  8
ADP2DETAIL
  6
CONTINUOUS
 62
     5
 48
0.125
100
AcDbPolyline
 90
        2
 70
   128
 43
0.0
 10
23.31816750988084
 20
7.722293676806381
 10
23.31816750988084
 20
7.597293676806381
  0
LWPOLYLINE
  5
143
330
A
100
AcDbEntity
  8
ADP1DETAIL
  6
CONTINUOUS
 62
     7
 48
0.125
100
AcDbPolyline
 90
        2
 70
   128
 43
0.0
 10
23.59916750988083
 20
6.974797077869554
 10
23.71990823816697
 20
6.942444697231739
  0
LWPOLYLINE
  5
147
330
A
100
AcDbEntity
  8
ADP1DETAIL
  6
CONTINUOUS
 62
     7
 48
0.125
100
AcDbPolyline
 90
        2
 70
   128
 43
0.0
 10
23.59916750988083
 20
6.974797077869554
 10
23.71990823816697
 20
6.942444697231739
  0
LWPOLYLINE
  5
14B
330
A
100
AcDbEntity
  8
ADP1DETAIL
  6
CONTINUOUS
 62
     7
 48
0.125
100
AcDbPolyline
 90
        2
 70
   128
 43
0.0
 10
23.59916750988083
 20
6.849797077869553
 10
23.59916750988083
 20
6.974797077869554
  0
LWPOLYLINE
  5
14F
330
A
100
AcDbEntity
  8
ADP1DETAIL
  6
CONTINUOUS
 62
     7
 48
0.125
100
AcDbPolyline
 90
        2
 70
   128
 43
0.0
 10
23.59916750988083
 20
6.849797077869553
 10
23.59916750988083
 20
6.974797077869554
  0
LWPOLYLINE
  5
153
330
A
100
AcDbEntity
  8
ADP1DETAIL
  6
CONTINUOUS
 62
     7
 48
0.125
100
AcDbPolyline
 90
        2
 70
   128
 43
0.0
 10
23.71990823816697
 20
6.942444697231739
 10
23.71990823816697
 20
6.942444697231739
  0
LWPOLYLINE
  5
157
330
A
100
AcDbEntity
  8
ADP1DETAIL
  6
CONTINUOUS
 62
     7
 48
0.125
100
AcDbPolyline
 90
        2
 70
   128
 43
0.0
 10
23.71990823816697
 20
6.942444697231739
 10
23.71990823816697
 20
6.942444697231739
  0
ARC
  5
15B
330
A
100
AcDbEntity
  8
ADP1DETAIL
  6
CONTINUOUS
 62
     7
 48
0.125
100
AcDbCircle
 10
-24.42062796805859
 20
6.662297077869553
 30
0.0
 40
0.750000000000001
210
0.0
220
0.0
230
-1.0
100
AcDbArc
 50
0.0
 51
21.78022512532524
  0
LWPOLYLINE
  5
15C
330
A
100
AcDbEntity
  8
ADP1DETAIL
  6
CONTINUOUS
 62
     7
 48
0.125
100
AcDbPolyline
 90
        2
 70
   128
 43
0.0
 10
23.72416750988084
 20
6.940582597066708
 10
23.72416750988084
 20
6.662297077869553
  0
LWPOLYLINE
  5
160
330
A
100
AcDbEntity
  8
ADP1DETAIL
  6
CONTINUOUS
 62
     7
 48
0.125
100
AcDbPolyline
 90
        2
 70
   128
 43
0.0
 10
23.72416750988084
 20
6.940582597066708
 10
23.72416750988084
 20
6.662297077869553
  0
ARC
  5
164
330
A
100
AcDbEntity
  8
ADP2DETAIL
  6
CONTINUOUS
 62
     5
 48
0.125
100
AcDbCircle
 10
-24.42062796805859
 20
6.662297077869553
 30
0.0
 40
0.750000000000001
210
0.0
220
0.0
230
-1.0
100
AcDbArc
 50
0.0
 51
21.78022512532524
  0
LWPOLYLINE
  5
165
330
A
100
AcDbEntity
  8
ADPDIM
  6
CONTINUOUS
 62
     3
 48
0.125
100
AcDbPolyline
 90
        2
 70
   128
 43
0.0
 10
26.02981800692827
 20
7.908765930008706
 10
26.02981800692827
 20
8.853986285666284
  0
LWPOLYLINE
  5
169
330
A
100
AcDbEntity
  8
ADPDIM
  6
CONTINUOUS
 62
     3
 48
0.125
100
AcDbPolyline
 90
        2
 70
   128
 43
0.0
 10
28.52981800692827
 20
7.852220528380589
 10
28.52981800692827
 20
8.853986285666284
  0
LWPOLYLINE
  5
16D
330
A
100
AcDbEntity
  8
ADPDIM
  6
CONTINUOUS
 62
     3
 48
0.125
100
AcDbPolyline
 90
        2
 70
   128
 43
0.0
 10
26.02981800692827
 20
8.673986285666284
 10
26.88398467359494
 20
8.673986285666284
  0
LWPOLYLINE
  5
171
330
A
100
AcDbEntity
  8
ADPDIM
  6
CONTINUOUS
 62
     3
 48
0.125
100
AcDbPolyline
 90
        2
 70
   128
 43
0.0
 10
28.52981800692827
 20
8.673986285666284
 10
27.67565134026161
 20
8.673986285666284
  0
LWPOLYLINE
  5
175
330
A
100
AcDbEntity
  8
ADPDIM
  6
CONTINUOUS
 62
     3
 48
0.125
100
AcDbPolyline
 90
        2
 70
   128
 43
0.0
 10
25.90481800692827
 20
8.548986285666284
 10
26.15481800692827
 20
8.798986285666284
  0
LWPOLYLINE
  5
179
330
A
100
AcDbEntity
  8
ADPDIM
  6
CONTINUOUS
 62
     3
 48
0.125
100
AcDbPolyline
 90
        2
 70
   128
 43
0.0
 10
28.40481800692827
 20
8.548986285666284
 10
28.65481800692827
 20
8.798986285666284
  0
TEXT
  5
17D
330
A
100
AcDbEntity
  8
ADPDIM
 62
     3
 48
0.0
100
AcDbText
 10
27.00898467359493
 20
8.611486285666284
 30
0.0
 40
0.125
  1
2 1/2
 72
     5
 11
27.5506513402616
 21
8.611486285666284
 31
0.0
100
AcDbText
  0
LWPOLYLINE
  5
17E
330
A
100
AcDbEntity
  8
ADPDIM
  6
CONTINUOUS
 62
     3
 48
0.125
100
AcDbPolyline
 90
        2
 70
   128
 43
0.0
 10
26.37023460458765
 20
7.64992843410826
 10
26.36856289498223
 20
8.500610399146822
  0
LWPOLYLINE
  5
182
330
A
100
AcDbEntity
  8
ADPDIM
  6
CONTINUOUS
 62
     3
 48
0.125
100
AcDbPolyline
 90
        2
 70
   128
 43
0.0
 10
28.18536235667306
 20
7.649928434108259
 10
28.18670577935744
 20
8.488149567896808
  0
LWPOLYLINE
  5
186
330
A
100
AcDbEntity
  8
ADPDIM
  6
CONTINUOUS
 62
     3
 48
0.125
100
AcDbPolyline
 90
        2
 70
   128
 43
0.0
 10
26.36856289498223
 20
8.320610399146822
 10
26.7852295616489
 20
8.320610399146822
  0
LWPOLYLINE
  5
18A
330
A
100
AcDbEntity
  8
ADPDIM
  6
CONTINUOUS
 62
     3
 48
0.125
100
AcDbPolyline
 90
        2
 70
   128
 43
0.0
 10
28.18670577935744
 20
8.308149567896808
 10
27.77003911269078
 20
8.308149567896808
  0
LWPOLYLINE
  5
18E
330
A
100
AcDbEntity
  8
ADPDIM
  6
CONTINUOUS
 62
     3
 48
0.125
100
AcDbPolyline
 90
        2
 70
   128
 43
0.0
 10
26.24356289498223
 20
8.195610399146822
 10
26.49356289498223
 20
8.445610399146822
  0
LWPOLYLINE
  5
192
330
A
100
AcDbEntity
  8
ADPDIM
  6
CONTINUOUS
 62
     3
 48
0.125
100
AcDbPolyline
 90
        2
 70
   128
 43
0.0
 10
28.06170577935745
 20
8.183149567896808
 10
28.31170577935745
 20
8.433149567896808
  0
TEXT
  5
196
330
A
100
AcDbEntity
  8
ADPDIM
 62
     3
 48
0.0
100
AcDbText
 10
26.86152474202093
 20
8.267197532842585
 30
0.0
 40
0.125
  1
1 13/16
 72
     5
 11
27.61985807535427
 21
8.267197532842585
 31
0.0
100
AcDbText
  0
LWPOLYLINE
  5
197
330
A
100
AcDbEntity
  8
ADP1DETAIL
  6
CONTINUOUS
 62
     7
 48
0.125
100
AcDbPolyline
 90
        2
 70
   128
 43
0.0
 10
28.49117273977401
 20
7.50909739847711
 10
27.74117273977401
 20
7.50909739847711
  0
LWPOLYLINE
  5
19B
330
A
100
AcDbEntity
  8
ADP1DETAIL
  6
CONTINUOUS
 62
     7
 48
0.125
100
AcDbPolyline
 90
        2
 70
   128
 43
0.0
 10
28.49117273977401
 20
7.708193993530128
 10
27.74162580065249
 20
7.709280683935255
  0
ARC
  5
19F
330
A
100
AcDbEntity
  8
ADP1DETAIL
  6
CONTINUOUS
 62
     7
 48
0.125
100
AcDbCircle
 10
-27.241672739774
 20
6.631430021378079
 30
0.0
 40
1.5
210
0.0
220
0.0
230
-1.0
100
AcDbArc
 50
45.87665151059843
 51
134.1070000974165
  0
ARC
  5
1A0
330
A
100
AcDbEntity
  8
ADP1DETAIL
  6
CONTINUOUS
 62
     7
 48
0.125
100
AcDbCircle
 10
-27.241672739774
 20
6.631430021378079
 30
0.0
 40
1.415949078414777
210
0.0
220
0.0
230
-1.0
100
AcDbArc
 50
49.50422739862839
 51
130.4659014340017
  0
ARC
  5
1A1
330
A
100
AcDbEntity
  8
ADP1DETAIL
  6
CONTINUOUS
 62
     7
 48
0.125
100
AcDbCircle
 10
-27.241672739774
 20
6.631430021378079
 30
0.0
 40
0.6249999999999996
210
0.0
220
0.0
230
-1.0
100
AcDbArc
 50
126.8126233266157
 51
53.07278506303066
  0
LWPOLYLINE
  5
1A2
330
A
100
AcDbEntity
  8
ADP1DETAIL
  6
CONTINUOUS
 62
     7
 48
0.125
100
AcDbPolyline
 90
        2
 70
   128
 43
0.0
 10
26.74117273977401
 20
7.50909739847711
 10
25.99117273977401
 20
7.50909739847711
  0
LWPOLYLINE
  5
1A6
330
A
100
AcDbEntity
  8
ADP1DETAIL
  6
CONTINUOUS
 62
     7
 48
0.125
100
AcDbPolyline
 90
        2
 70
   128
 43
0.0
 10
25.99117273977401
 20
7.708193993530128
 10
26.74117273977401
 20
7.708193993530128
  0
LWPOLYLINE
  5
1AA
330
A
100
AcDbEntity
  8
ADP1DETAIL
  6
CONTINUOUS
 62
     7
 48
0.125
100
AcDbPolyline
 90
        2
 70
   128
 43
0.0
 10
25.99117273977401
 20
7.50909739847711
 10
25.99117273977401
 20
7.708193993530128
  0
LWPOLYLINE
  5
1AE
330
A
100
AcDbEntity
  8
ADP2DETAIL
  6
CONTINUOUS
 62
     5
 48
0.125
100
AcDbPolyline
 90
        2
 70
   128
 43
0.0
 10
26.46505346856002
 20
7.699731187278689
 10
26.46505346856002
 20
7.574731187278689
  0
LWPOLYLINE
  5
1B2
330
A
100
AcDbEntity
  8
ADP2DETAIL
  6
CONTINUOUS
 62
     5
 48
0.125
100
AcDbPolyline
 90
        2
 70
   128
 43
0.0
 10
26.46505346856002
 20
7.574731187278689
 10
26.52705346856003
 20
7.512731187278691
  0
LWPOLYLINE
  5
1B6
330
A
100
AcDbEntity
  8
ADP2DETAIL
  6
CONTINUOUS
 62
     5
 48
0.125
100
AcDbPolyline
 90
        2
 70
   128
 43
0.0
 10
26.27705346856003
 20
7.699731187278689
 10
26.27705346856003
 20
7.574731187278689
  0
LWPOLYLINE
  5
1BA
330
A
100
AcDbEntity
  8
ADP2DETAIL
  6
CONTINUOUS
 62
     5
 48
0.125
100
AcDbPolyline
 90
        2
 70
   128
 43
0.0
 10
26.27705346856003
 20
7.574731187278689
 10
26.21505346856002
 20
7.512731187278691
  0
ARC
  5
1BE
330
A
100
AcDbEntity
  8
ADP1DETAIL
  6
CONTINUOUS
 62
     7
 48
0.125
100
AcDbCircle
 10
-27.241672739774
 20
6.631430021378079
 30
0.0
 40
0.4999999999999988
210
0.0
220
0.0
230
-1.0
100
AcDbArc
 50
138.5038289027595
 51
41.32292462379911
  0
LWPOLYLINE
  5
1BF
330
A
100
AcDbEntity
  8
ADP1DETAIL
  6
CONTINUOUS
 62
     7
 48
0.125
100
AcDbPolyline
 90
        2
 70
   128
 43
0.0
 10
27.61617273977401
 20
7.38409739847711
 10
27.61617273977401
 20
6.634597398477108
  0
LWPOLYLINE
  5
1C3
330
A
100
AcDbEntity
  8
ADP1DETAIL
  6
CONTINUOUS
 62
     7
 48
0.125
100
AcDbPolyline
 90
        2
 70
   128
 43
0.0
 10
26.86617273977401
 20
6.634597398477108
 10
26.86617273977401
 20
7.38409739847711
  0
CIRCLE
  5
1C7
330
A
100
AcDbEntity
  8
ADP1DETAIL
  6
CONTINUOUS
 62
     7
 48
0.125
100
AcDbCircle
 10
-27.241672739774
 20
6.631430021378079
 30
0.0
 40
0.2859512779740925
210
0.0
220
0.0
230
-1.0
  0
CIRCLE
  5
1C8
330
A
100
AcDbEntity
  8
ADP1DETAIL
  6
CONTINUOUS
 62
     7
 48
0.125
100
AcDbCircle
 10
-27.241672739774
 20
6.631430021378079
 30
0.0
 40
0.3125
210
0.0
220
0.0
230
-1.0
  0
ARC
  5
1C9
330
A
100
AcDbEntity
  8
ADP1DETAIL
  6
CONTINUOUS
 62
     7
 48
0.125
100
AcDbCircle
 10
-27.241672739774
 20
6.634597398477108
 30
0.0
 40
0.3745000000000003
210
0.0
220
0.0
230
-1.0
100
AcDbArc
 50
180.0
 51
270.0000000000008
  0
LWPOLYLINE
  5
1CA
330
A
100
AcDbEntity
  8
ADP1DETAIL
  6
CONTINUOUS
 62
     7
 48
0.125
100
AcDbPolyline
 90
        2
 70
   128
 43
0.0
 10
27.241672739774
 20
6.260097398477107
 10
27.24067273977401
 20
6.260097398477107
  0
ARC
  5
1CE
330
A
100
AcDbEntity
  8
ADP1DETAIL
  6
CONTINUOUS
 62
     7
 48
0.125
100
AcDbCircle
 10
-27.24067273977401
 20
6.634597398477108
 30
0.0
 40
0.3745000000000012
210
0.0
220
0.0
230
-1.0
100
AcDbArc
 50
270.0000000000008
 51
360.0000000000008
  0
ARC
  5
1CF
330
A
100
AcDbEntity
  8
ADP1DETAIL
  6
CONTINUOUS
 62
     7
 48
0.125
100
AcDbCircle
 10
-27.74117273977401
 20
7.396781012358084
 30
0.0
 40
0.3125000000000003
210
0.0
220
0.0
230
-1.0
100
AcDbArc
 50
0.0
 51
90.08306715294011
  0
LWPOLYLINE
  5
1D0
330
A
100
AcDbEntity
  8
ADP1DETAIL
  6
CONTINUOUS
 62
     7
 48
0.125
100
AcDbPolyline
 90
        2
 70
   128
 43
0.0
 10
27.06078494071936
 20
7.727175864393939
 10
27.42752747261974
 20
7.727175864393939
  0
ARC
  5
1D4
330
A
100
AcDbEntity
  8
ADP1DETAIL
  6
CONTINUOUS
 62
     7
 48
0.125
100
AcDbCircle
 10
-26.74117273977401
 20
7.38409739847711
 30
0.0
 40
0.125
210
0.0
220
0.0
230
-1.0
100
AcDbArc
 50
90.0
 51
180.0
  0
LWPOLYLINE
  5
1D5
330
A
100
AcDbEntity
  8
ADP1DETAIL
  6
CONTINUOUS
 62
     7
 48
0.125
100
AcDbPolyline
 90
        2
 70
   128
 43
0.0
 10
27.05367273977401
 20
6.881054238953218
 10
27.05367273977401
 20
7.727175864393939
  0
ARC
  5
1D9
330
A
100
AcDbEntity
  8
ADP1DETAIL
  6
CONTINUOUS
 62
     7
 48
0.125
100
AcDbCircle
 10
-26.74117273977401
 20
7.395693993530128
 30
0.0
 40
0.3125
210
0.0
220
0.0
230
-1.0
100
AcDbArc
 50
90.0
 51
180.0
  0
ARC
  5
1DA
330
A
100
AcDbEntity
  8
ADP1DETAIL
  6
CONTINUOUS
 62
     7
 48
0.125
100
AcDbCircle
 10
-27.74117273977401
 20
7.38409739847711
 30
0.0
 40
0.125
210
0.0
220
0.0
230
-1.0
100
AcDbArc
 50
0.0
 51
90.0
  0
LWPOLYLINE
  5
1DB
330
A
100
AcDbEntity
  8
ADP1DETAIL
  6
CONTINUOUS
 62
     7
 48
0.125
100
AcDbPolyline
 90
        2
 70
   128
 43
0.0
 10
27.42752747261974
 20
6.881054238953218
 10
27.42752747261974
 20
7.727175864393939
  0
LWPOLYLINE
  5
1DF
330
A
100
AcDbEntity
  8
ADP2DETAIL
  6
CONTINUOUS
 62
     5
 48
0.125
100
AcDbPolyline
 90
        2
 70
   128
 43
0.0
 10
28.08896593731024
 20
7.708038408112032
 10
28.08896593731024
 20
7.583038408112032
  0
LWPOLYLINE
  5
1E3
330
A
100
AcDbEntity
  8
ADP2DETAIL
  6
CONTINUOUS
 62
     5
 48
0.125
100
AcDbPolyline
 90
        2
 70
   128
 43
0.0
 10
28.08896593731024
 20
7.583038408112032
 10
28.02696593731024
 20
7.521038408112034
  0
LWPOLYLINE
  5
1E7
330
A
100
AcDbEntity
  8
ADP1DETAIL
  6
CONTINUOUS
 62
     7
 48
0.125
100
AcDbPolyline
 90
        2
 70
   128
 43
0.0
 10
28.49117273977401
 20
7.708193993530128
 10
28.49117273977401
 20
7.50909739847711
  0
LWPOLYLINE
  5
1EB
330
A
100
AcDbEntity
  8
ADP2DETAIL
  6
CONTINUOUS
 62
     5
 48
0.125
100
AcDbPolyline
 90
        2
 70
   128
 43
0.0
 10
28.27696593731024
 20
7.708038408112032
 10
28.27696593731024
 20
7.583038408112032
  0
LWPOLYLINE
  5
1EF
330
A
100
AcDbEntity
  8
ADP2DETAIL
  6
CONTINUOUS
 62
     5
 48
0.125
100
AcDbPolyline
 90
        2
 70
   128
 43
0.0
 10
28.27696593731024
 20
7.583038408112032
 10
28.33896593731024
 20
7.521038408112034
  0
LWPOLYLINE
  5
1F3
330
A
100
AcDbEntity
  8
DEFPOINTS
  6
CONTINUOUS
 62
     3
 48
0.125
100
AcDbPolyline
 90
        2
 70
   128
 43
0.0
 10
23.78764061331113
 20
6.68503407923086
 10
23.78764061331113
 20
6.68503407923086
  0
LWPOLYLINE
  5
1F7
330
A
100
AcDbEntity
  8
DEFPOINTS
  6
CONTINUOUS
 62
     3
 48
0.125
100
AcDbPolyline
 90
        2
 70
   128
 43
0.0
 10
23.78764061331113
 20
6.68503407923086
 10
23.78764061331113
 20
6.68503407923086
  0
LWPOLYLINE
  5
1FB
330
A
100
AcDbEntity
  8
DEFPOINTS
  6
CONTINUOUS
 62
     3
 48
0.125
100
AcDbPolyline
 90
        2
 70
   128
 43
0.0
 10
23.47514061331112
 20
7.74753407923086
 10
23.47514061331112
 20
7.74753407923086
  0
LWPOLYLINE
  5
1FF
330
A
100
AcDbEntity
  8
DEFPOINTS
  6
CONTINUOUS
 62
     3
 48
0.125
100
AcDbPolyline
 90
        2
 70
   128
 43
0.0
 10
23.47514061331112
 20
7.74753407923086
 10
23.47514061331112
 20
7.74753407923086
  0
LWPOLYLINE
  5
203
330
A
100
AcDbEntity
  8
DEFPOINTS
  6
CONTINUOUS
 62
     3
 48
0.125
100
AcDbPolyline
 90
        2
 70
   128
 43
0.0
 10
24.22514061331113
 20
7.74753407923086
 10
24.22514061331113
 20
7.74753407923086
  0
LWPOLYLINE
  5
207
330
A
100
AcDbEntity
  8
DEFPOINTS
  6
CONTINUOUS
 62
     3
 48
0.125
100
AcDbPolyline
 90
        2
 70
   128
 43
0.0
 10
24.22514061331113
 20
7.74753407923086
 10
24.22514061331113
 20
7.74753407923086
  0
LWPOLYLINE
  5
20B
330
A
100
AcDbEntity
  8
DEFPOINTS
  6
CONTINUOUS
 62
     3
 48
0.125
100
AcDbPolyline
 90
        2
 70
   128
 43
0.0
 10
20.97514061331113
 20
8.185034079230861
 10
20.97514061331113
 20
8.185034079230861
  0
LWPOLYLINE
  5
20F
330
A
100
AcDbEntity
  8
DEFPOINTS
  6
CONTINUOUS
 62
     3
 48
0.125
100
AcDbPolyline
 90
        2
 70
   128
 43
0.0
 10
20.97514061331113
 20
8.185034079230861
 10
20.97514061331113
 20
8.185034079230861
  0
LWPOLYLINE
  5
213
330
A
100
AcDbEntity
  8
DEFPOINTS
  6
CONTINUOUS
 62
     3
 48
0.125
100
AcDbPolyline
 90
        2
 70
   128
 43
0.0
 10
23.22514061331113
 20
7.87253407923086
 10
23.22514061331113
 20
7.87253407923086
  0
LWPOLYLINE
  5
217
330
A
100
AcDbEntity
  8
DEFPOINTS
  6
CONTINUOUS
 62
     3
 48
0.125
100
AcDbPolyline
 90
        2
 70
   128
 43
0.0
 10
23.22514061331113
 20
7.87253407923086
 10
23.22514061331113
 20
7.87253407923086
  0
LWPOLYLINE
  5
21B
330
A
100
AcDbEntity
  8
DEFPOINTS
  6
CONTINUOUS
 62
     3
 48
0.125
100
AcDbPolyline
 90
        2
 70
   128
 43
0.0
 10
23.22514061331113
 20
8.497534079230861
 10
23.22514061331113
 20
8.497534079230861
  0
LWPOLYLINE
  5
21F
330
A
100
AcDbEntity
  8
DEFPOINTS
  6
CONTINUOUS
 62
     3
 48
0.125
100
AcDbPolyline
 90
        2
 70
   128
 43
0.0
 10
23.22514061331113
 20
8.497534079230861
 10
23.22514061331113
 20
8.497534079230861
  0
LWPOLYLINE
  5
223
330
A
100
AcDbEntity
  8
DEFPOINTS
  6
CONTINUOUS
 62
     3
 48
0.125
100
AcDbPolyline
 90
        2
 70
   128
 43
0.0
 10
26.20088906563679
 20
5.551259042481939
 10
26.20088906563679
 20
5.551259042481939
  0
LWPOLYLINE
  5
227
330
A
100
AcDbEntity
  8
DEFPOINTS
  6
CONTINUOUS
 62
     3
 48
0.125
100
AcDbPolyline
 90
        2
 70
   128
 43
0.0
 10
26.20088906563679
 20
5.551259042481939
 10
26.20088906563679
 20
5.551259042481939
  0
LWPOLYLINE
  5
22B
330
A
100
AcDbEntity
  8
DEFPOINTS
  6
CONTINUOUS
 62
     7
 48
0.125
100
AcDbPolyline
 90
        2
 70
   128
 43
0.0
 10
28.37383584307799
 20
7.726138636732572
 10
28.37383584307799
 20
7.726138636732572
  0
LWPOLYLINE
  5
22F
330
A
100
AcDbEntity
  8
DEFPOINTS
  6
CONTINUOUS
 62
     7
 48
0.125
100
AcDbPolyline
 90
        2
 70
   128
 43
0.0
 10
28.37383584307799
 20
7.726138636732572
 10
28.37383584307799
 20
7.726138636732572
  0
LWPOLYLINE
  5
233
330
A
100
AcDbEntity
  8
DEFPOINTS
  6
CONTINUOUS
 62
     7
 48
0.125
100
AcDbPolyline
 90
        2
 70
   128
 43
0.0
 10
25.99117273977401
 20
7.708193993530128
 10
25.99117273977401
 20
7.708193993530128
  0
LWPOLYLINE
  5
237
330
A
100
AcDbEntity
  8
DEFPOINTS
  6
CONTINUOUS
 62
     7
 48
0.125
100
AcDbPolyline
 90
        2
 70
   128
 43
0.0
 10
25.99117273977401
 20
7.708193993530128
 10
25.99117273977401
 20
7.708193993530128
  0
LWPOLYLINE
  5
23B
330
A
100
AcDbEntity
  8
DEFPOINTS
  6
CONTINUOUS
 62
     7
 48
0.125
100
AcDbPolyline
 90
        2
 70
   128
 43
0.0
 10
27.15167273977401
 20
6.631430021378081
 10
27.15167273977401
 20
6.631430021378081
  0
LWPOLYLINE
  5
23F
330
A
100
AcDbEntity
  8
DEFPOINTS
  6
CONTINUOUS
 62
     7
 48
0.125
100
AcDbPolyline
 90
        2
 70
   128
 43
0.0
 10
27.15167273977401
 20
6.631430021378081
 10
27.15167273977401
 20
6.631430021378081
  0
LWPOLYLINE
  5
243
330
A
100
AcDbEntity
  8
DEFPOINTS
  6
CONTINUOUS
 62
     3
 48
0.125
100
AcDbPolyline
 90
        2
 70
   128
 43
0.0
 10
25.27125079385681
 20
6.631430021378081
 10
25.27125079385681
 20
6.631430021378081
  0
LWPOLYLINE
  5
247
330
A
100
AcDbEntity
  8
DEFPOINTS
  6
CONTINUOUS
 62
     3
 48
0.125
100
AcDbPolyline
 90
        2
 70
   128
 43
0.0
 10
25.27125079385681
 20
6.631430021378081
 10
25.27125079385681
 20
6.631430021378081
  0
LWPOLYLINE
  5
24B
330
A
100
AcDbEntity
  8
DEFPOINTS
  6
CONTINUOUS
 62
     7
 48
0.125
100
AcDbPolyline
 90
        2
 70
   128
 43
0.0
 10
22.84916750988084
 20
6.286797077869554
 10
22.84916750988084
 20
6.286797077869554
  0
LWPOLYLINE
  5
24F
330
A
100
AcDbEntity
  8
DEFPOINTS
  6
CONTINUOUS
 62
     7
 48
0.125
100
AcDbPolyline
 90
        2
 70
   128
 43
0.0
 10
22.84916750988084
 20
6.286797077869554
 10
22.84916750988084
 20
6.286797077869554
  0
LWPOLYLINE
  5
253
330
A
100
AcDbEntity
  8
DEFPOINTS
  6
CONTINUOUS
 62
     7
 48
0.125
100
AcDbPolyline
 90
        2
 70
   128
 43
0.0
 10
23.59916750988084
 20
6.286797077869554
 10
23.59916750988084
 20
6.286797077869554
  0
LWPOLYLINE
  5
257
330
A
100
AcDbEntity
  8
DEFPOINTS
  6
CONTINUOUS
 62
     7
 48
0.125
100
AcDbPolyline
 90
        2
 70
   128
 43
0.0
 10
23.59916750988084
 20
6.286797077869554
 10
23.59916750988084
 20
6.286797077869554
  0
LWPOLYLINE
  5
25B
330
A
100
AcDbEntity
  8
DEFPOINTS
  6
CONTINUOUS
 62
     7
 48
0.125
100
AcDbPolyline
 90
        2
 70
   128
 43
0.0
 10
23.59916750988084
 20
5.974337269810193
 10
23.59916750988084
 20
5.974337269810193
  0
LWPOLYLINE
  5
25F
330
A
100
AcDbEntity
  8
DEFPOINTS
  6
CONTINUOUS
 62
     7
 48
0.125
100
AcDbPolyline
 90
        2
 70
   128
 43
0.0
 10
23.59916750988084
 20
5.974337269810193
 10
23.59916750988084
 20
5.974337269810193
  0
LWPOLYLINE
  5
263
330
A
100
AcDbEntity
  8
DEFPOINTS
  6
CONTINUOUS
 62
     3
 48
0.125
100
AcDbPolyline
 90
        2
 70
   128
 43
0.0
 10
26.02981800692827
 20
7.846265930008706
 10
26.02981800692827
 20
7.846265930008706
  0
LWPOLYLINE
  5
267
330
A
100
AcDbEntity
  8
DEFPOINTS
  6
CONTINUOUS
 62
     3
 48
0.125
100
AcDbPolyline
 90
        2
 70
   128
 43
0.0
 10
26.02981800692827
 20
7.846265930008706
 10
26.02981800692827
 20
7.846265930008706
  0
LWPOLYLINE
  5
26B
330
A
100
AcDbEntity
  8
DEFPOINTS
  6
CONTINUOUS
 62
     3
 48
0.125
100
AcDbPolyline
 90
        2
 70
   128
 43
0.0
 10
28.52981800692827
 20
7.789720528380589
 10
28.52981800692827
 20
7.789720528380589
  0
LWPOLYLINE
  5
26F
330
A
100
AcDbEntity
  8
DEFPOINTS
  6
CONTINUOUS
 62
     3
 48
0.125
100
AcDbPolyline
 90
        2
 70
   128
 43
0.0
 10
28.52981800692827
 20
7.789720528380589
 10
28.52981800692827
 20
7.789720528380589
  0
LWPOLYLINE
  5
273
330
A
100
AcDbEntity
  8
DEFPOINTS
  6
CONTINUOUS
 62
     3
 48
0.125
100
AcDbPolyline
 90
        2
 70
   128
 43
0.0
 10
28.52981800692827
 20
8.673986285666286
 10
28.52981800692827
 20
8.673986285666286
  0
LWPOLYLINE
  5
277
330
A
100
AcDbEntity
  8
DEFPOINTS
  6
CONTINUOUS
 62
     3
 48
0.125
100
AcDbPolyline
 90
        2
 70
   128
 43
0.0
 10
28.52981800692827
 20
8.673986285666286
 10
28.52981800692827
 20
8.673986285666286
  0
LWPOLYLINE
  5
27B
330
A
100
AcDbEntity
  8
DEFPOINTS
  6
CONTINUOUS
 62
     3
 48
0.125
100
AcDbPolyline
 90
        2
 70
   128
 43
0.0
 10
26.37063970019056
 20
7.74481488580249
 10
26.37063970019056
 20
7.74481488580249
  0
LWPOLYLINE
  5
27F
330
A
100
AcDbEntity
  8
DEFPOINTS
  6
CONTINUOUS
 62
     3
 48
0.125
100
AcDbPolyline
 90
        2
 70
   128
 43
0.0
 10
26.37063970019056
 20
7.74481488580249
 10
26.37063970019056
 20
7.74481488580249
  0
LWPOLYLINE
  5
283
330
A
100
AcDbEntity
  8
DEFPOINTS
  6
CONTINUOUS
 62
     3
 48
0.125
100
AcDbPolyline
 90
        2
 70
   128
 43
0.0
 10
28.09117273977401
 20
7.738584470177483
 10
28.09117273977401
 20
7.738584470177483
  0
LWPOLYLINE
  5
287
330
A
100
AcDbEntity
  8
DEFPOINTS
  6
CONTINUOUS
 62
     3
 48
0.125
100
AcDbPolyline
 90
        2
 70
   128
 43
0.0
 10
28.09117273977401
 20
7.738584470177483
 10
28.09117273977401
 20
7.738584470177483
  0
LWPOLYLINE
  5
28B
330
A
100
AcDbEntity
  8
DEFPOINTS
  6
CONTINUOUS
 62
     3
 48
0.125
100
AcDbPolyline
 90
        2
 70
   128
 43
0.0
 10
28.18670577935745
 20
8.308149567896808
 10
28.18670577935745
 20
8.308149567896808
  0
LWPOLYLINE
  5
28F
330
A
100
AcDbEntity
  8
DEFPOINTS
  6
CONTINUOUS
 62
     3
 48
0.125
100
AcDbPolyline
 90
        2
 70
   128
 43
0.0
 10
28.18670577935745
 20
8.308149567896808
 10
28.18670577935745
 20
8.308149567896808
  0
TEXT
  5
33F
330
A
100
AcDbEntity
  8
ADPDIM
100
AcDbText
 10
18.37161331513347
 20
3.938945388351942
 30
0.0
 40
0.125
  1
J U L I U S  B L U M  &  C O . ,  I N C .      ( 8 0 0 )  5 2 6 - 6 2 9 3        W W W . J U L I U S B L U M . C O M        P A R T  N O .  2 7 1
 41
1.25
  7
ARIAL_WIDE
 72
     1
 11
24.8305150886669
 21
4.063945388351942
 31
0.0
100
AcDbText
 73
     3
  0
ENDSEC
  0
SECTION
  2
OBJECTS
  0
DICTIONARY
  5
19
330
0
100
AcDbDictionary
  3
ACAD_GROUP
350
1A
  3
ACAD_LAYOUT
350
298
  3
ACAD_MLINESTYLE
350
1B
  3
ACAD_PLOTSETTINGS
350
299
  3
ACAD_PLOTSTYLENAME
350
296
  3
ACDBHEADERROUNDTRIPXREC
350
409
  3
ACDBVARIABLEDICTIONARY
350
306
  0
DICTIONARY
  5
2FA
330
A
100
AcDbDictionary
280
     1
  3
ACAD_LAYOUTSELFREF
360
429
  0
DICTIONARY
  5
2FC
330
B
100
AcDbDictionary
280
     1
  3
ACAD_LAYOUTSELFREF
360
42A
  0
DICTIONARY
  5
1A
102
{ACAD_REACTORS
330
19
102
}
330
19
100
AcDbDictionary
  0
DICTIONARY
  5
298
102
{ACAD_REACTORS
330
19
102
}
330
19
100
AcDbDictionary
  0
DICTIONARY
  5
1B
102
{ACAD_REACTORS
330
19
102
}
330
19
100
AcDbDictionary
  3
STANDARD
350
1C
  0
DICTIONARY
  5
299
102
{ACAD_REACTORS
330
19
102
}
330
19
100
AcDbDictionary
  0
ACDBDICTIONARYWDFLT
  5
296
102
{ACAD_REACTORS
330
19
102
}
330
19
100
AcDbDictionary
281
     1
  3
Normal
350
297
100
AcDbDictionaryWithDefault
340
297
  0
DICTIONARY
  5
409
102
{ACAD_REACTORS
330
19
102
}
330
19
100
AcDbDictionary
  3
CEPSNTYPE
350
413
  3
FINGERPRINTGUID
350
414
  3
HYPERLINKBASE
350
40C
  3
INSUNITS
350
412
  3
LAYOUTDICT
350
40E
  3
LWETCUNION
350
411
  3
PLOTSETDICT
350
40F
  3
PLOTSTYLNAMDICT
350
410
  3
PSVPSCALE
350
416
  3
PUCSBASE
350
419
  3
PUCSORGBACK
350
41F
  3
PUCSORGBOTTOM
350
41B
  3
PUCSORGFRONT
350
41E
  3
PUCSORGLEFT
350
41C
  3
PUCSORGRIGHT
350
41D
  3
PUCSORGTOP
350
41A
  3
PUCSORTHOREF
350
417
  3
PUCSORTHOVIEW
350
418
  3
STYLESHEET
350
40D
  3
TSTACKALIGN
350
40A
  3
TSTACKSIZE
350
40B
  3
UCSBASE
350
422
  3
UCSORGBACK
350
428
  3
UCSORGBOTTOM
350
424
  3
UCSORGFRONT
350
427
  3
UCSORGLEFT
350
425
  3
UCSORGRIGHT
350
426
  3
UCSORGTOP
350
423
  3
UCSORTHOREF
350
420
  3
UCSORTHOVIEW
350
421
  3
VERSIONGUID
350
415
  0
DICTIONARY
  5
306
102
{ACAD_REACTORS
330
19
102
}
330
19
100
AcDbDictionary
  3
DIMASSOC
350
307
  0
XRECORD
  5
429
102
{ACAD_REACTORS
330
2FA
102
}
330
2FA
100
AcDbXrecord
340
A
  0
XRECORD
  5
42A
102
{ACAD_REACTORS
330
2FC
102
}
330
2FC
100
AcDbXrecord
340
B
  0
MLINESTYLE
  5
1C
102
{ACAD_REACTORS
330
1B
102
}
330
1B
100
AcDbMlineStyle
  2
STANDARD
 70
     0
  3

 62
     0
 51
90.00000000000019
 52
90.00000000000019
 71
     2
 49
0.5
 62
   256
  6
BYLAYER
 49
-0.5
 62
   256
  6
BYLAYER
  0
ACDBPLACEHOLDER
  5
297
102
{ACAD_REACTORS
330
296
102
}
330
296
100
AcDbPlaceHolder
280
     0
  0
XRECORD
  5
413
102
{ACAD_REACTORS
330
409
102
}
330
409
100
AcDbXrecord
 90
        0
  0
XRECORD
  5
414
102
{ACAD_REACTORS
330
409
102
}
330
409
100
AcDbXrecord
  1
{B8758794-A4CF-46CC-BF30-43D937D2419D}
  0
XRECORD
  5
40C
102
{ACAD_REACTORS
330
409
102
}
330
409
100
AcDbXrecord
  1

  0
XRECORD
  5
412
102
{ACAD_REACTORS
330
409
102
}
330
409
100
AcDbXrecord
 90
        0
  0
XRECORD
  5
40E
102
{ACAD_REACTORS
330
409
102
}
330
409
100
AcDbXrecord
340
298
  0
XRECORD
  5
411
102
{ACAD_REACTORS
330
409
102
}
330
409
100
AcDbXrecord
 90
    14877
  0
XRECORD
  5
40F
102
{ACAD_REACTORS
330
409
102
}
330
409
100
AcDbXrecord
340
299
  0
XRECORD
  5
410
102
{ACAD_REACTORS
330
409
102
}
330
409
100
AcDbXrecord
340
296
  0
XRECORD
  5
416
102
{ACAD_REACTORS
330
409
102
}
330
409
100
AcDbXrecord
 40
0.0
  0
XRECORD
  5
419
102
{ACAD_REACTORS
330
409
102
}
330
409
100
AcDbXrecord
340
0
  0
XRECORD
  5
41F
102
{ACAD_REACTORS
330
409
102
}
330
409
100
AcDbXrecord
 10
0.0
 20
0.0
 30
0.0
  0
XRECORD
  5
41B
102
{ACAD_REACTORS
330
409
102
}
330
409
100
AcDbXrecord
 10
0.0
 20
0.0
 30
0.0
  0
XRECORD
  5
41E
102
{ACAD_REACTORS
330
409
102
}
330
409
100
AcDbXrecord
 10
0.0
 20
0.0
 30
0.0
  0
XRECORD
  5
41C
102
{ACAD_REACTORS
330
409
102
}
330
409
100
AcDbXrecord
 10
0.0
 20
0.0
 30
0.0
  0
XRECORD
  5
41D
102
{ACAD_REACTORS
330
409
102
}
330
409
100
AcDbXrecord
 10
0.0
 20
0.0
 30
0.0
  0
XRECORD
  5
41A
102
{ACAD_REACTORS
330
409
102
}
330
409
100
AcDbXrecord
 10
0.0
 20
0.0
 30
0.0
  0
XRECORD
  5
417
102
{ACAD_REACTORS
330
409
102
}
330
409
100
AcDbXrecord
340
0
  0
XRECORD
  5
418
102
{ACAD_REACTORS
330
409
102
}
330
409
100
AcDbXrecord
 70
     0
  0
XRECORD
  5
40D
102
{ACAD_REACTORS
330
409
102
}
330
409
100
AcDbXrecord
  1

  0
XRECORD
  5
40A
102
{ACAD_REACTORS
330
409
102
}
330
409
100
AcDbXrecord
 90
        1
  0
XRECORD
  5
40B
102
{ACAD_REACTORS
330
409
102
}
330
409
100
AcDbXrecord
 90
       70
  0
XRECORD
  5
422
102
{ACAD_REACTORS
330
409
102
}
330
409
100
AcDbXrecord
340
0
  0
XRECORD
  5
428
102
{ACAD_REACTORS
330
409
102
}
330
409
100
AcDbXrecord
 10
0.0
 20
0.0
 30
0.0
  0
XRECORD
  5
424
102
{ACAD_REACTORS
330
409
102
}
330
409
100
AcDbXrecord
 10
0.0
 20
0.0
 30
0.0
  0
XRECORD
  5
427
102
{ACAD_REACTORS
330
409
102
}
330
409
100
AcDbXrecord
 10
0.0
 20
0.0
 30
0.0
  0
XRECORD
  5
425
102
{ACAD_REACTORS
330
409
102
}
330
409
100
AcDbXrecord
 10
0.0
 20
0.0
 30
0.0
  0
XRECORD
  5
426
102
{ACAD_REACTORS
330
409
102
}
330
409
100
AcDbXrecord
 10
0.0
 20
0.0
 30
0.0
  0
XRECORD
  5
423
102
{ACAD_REACTORS
330
409
102
}
330
409
100
AcDbXrecord
 10
0.0
 20
0.0
 30
0.0
  0
XRECORD
  5
420
102
{ACAD_REACTORS
330
409
102
}
330
409
100
AcDbXrecord
340
0
  0
XRECORD
  5
421
102
{ACAD_REACTORS
330
409
102
}
330
409
100
AcDbXrecord
 70
     0
  0
XRECORD
  5
415
102
{ACAD_REACTORS
330
409
102
}
330
409
100
AcDbXrecord
  1
{59D1F99B-0A77-4316-816F-41E8B35017FF}
  0
DICTIONARYVAR
  5
307
102
{ACAD_REACTORS
330
306
102
}
330
306
100
DictionaryVariables
280
     0
  1
1
  0
ENDSEC
  0
EOF
