  0
SECTION
  2
HEADER
  9
$ACADVER
  1
AC1014
  9
$ACADMAINTVER
 70
     9
  9
$DWGCODEPAGE
  3
ANSI_1252
  9
$INSBASE
 10
0.0
 20
0.0
 30
0.0
  9
$EXTMIN
 10
-2.279646552212038
 20
-0.3760371798868753
 30
0.0
  9
$EXTMAX
 10
4.246082472344578
 20
1.876768153229466
 30
0.0
  9
$LIMMIN
 10
0.0
 20
0.0
  9
$LIMMAX
 10
0.0
 20
0.0
  9
$ORTHOMODE
 70
     1
  9
$REGENMODE
 70
     1
  9
$FILLMODE
 70
     1
  9
$QTEXTMODE
 70
     0
  9
$MIRRTEXT
 70
     1
  9
$DRAGMODE
 70
     0
  9
$LTSCALE
 40
1.0
  9
$OSMODE
 70
    37
  9
$ATTMODE
 70
     1
  9
$TEXTSIZE
 40
0.0
  9
$TRACEWID
 40
0.05
  9
$TEXTSTYLE
  7
STANDARD
  9
$CLAYER
  8
0
  9
$CELTYPE
  6
CONTINUOUS
  9
$CECOLOR
 62
   256
  9
$CELTSCALE
 40
1.0
  9
$DELOBJ
 70
     1
  9
$DISPSILH
 70
     0
  9
$DIMSCALE
 40
1.0
  9
$DIMASZ
 40
0.18
  9
$DIMEXO
 40
0.0625
  9
$DIMDLI
 40
0.38
  9
$DIMRND
 40
0.0
  9
$DIMDLE
 40
0.0
  9
$DIMEXE
 40
0.18
  9
$DIMTP
 40
0.0
  9
$DIMTM
 40
0.0
  9
$DIMTXT
 40
0.18
  9
$DIMCEN
 40
0.09
  9
$DIMTSZ
 40
0.0
  9
$DIMTOL
 70
     0
  9
$DIMLIM
 70
     0
  9
$DIMTIH
 70
     1
  9
$DIMTOH
 70
     1
  9
$DIMSE1
 70
     0
  9
$DIMSE2
 70
     0
  9
$DIMTAD
 70
     0
  9
$DIMZIN
 70
     0
  9
$DIMBLK
  1

  9
$DIMASO
 70
     1
  9
$DIMSHO
 70
     1
  9
$DIMPOST
  1

  9
$DIMAPOST
  1

  9
$DIMALT
 70
     0
  9
$DIMALTD
 70
     2
  9
$DIMALTF
 40
25.4
  9
$DIMLFAC
 40
1.0
  9
$DIMTOFL
 70
     0
  9
$DIMTVP
 40
0.0
  9
$DIMTIX
 70
     0
  9
$DIMSOXD
 70
     0
  9
$DIMSAH
 70
     0
  9
$DIMBLK1
  1

  9
$DIMBLK2
  1

  9
$DIMSTYLE
  2
STANDARD
  9
$DIMCLRD
 70
     0
  9
$DIMCLRE
 70
     0
  9
$DIMCLRT
 70
     0
  9
$DIMTFAC
 40
1.0
  9
$DIMGAP
 40
0.09
  9
$DIMJUST
 70
     0
  9
$DIMSD1
 70
     0
  9
$DIMSD2
 70
     0
  9
$DIMTOLJ
 70
     1
  9
$DIMTZIN
 70
     0
  9
$DIMALTZ
 70
     0
  9
$DIMALTTZ
 70
     0
  9
$DIMFIT
 70
     3
  9
$DIMUPT
 70
     0
  9
$DIMUNIT
 70
     2
  9
$DIMDEC
 70
     4
  9
$DIMTDEC
 70
     4
  9
$DIMALTU
 70
     2
  9
$DIMALTTD
 70
     2
  9
$DIMTXSTY
  7
STANDARD
  9
$DIMAUNIT
 70
     0
  9
$LUNITS
 70
     2
  9
$LUPREC
 70
     4
  9
$SKETCHINC
 40
0.1
  9
$FILLETRAD
 40
0.0
  9
$AUNITS
 70
     0
  9
$AUPREC
 70
     0
  9
$MENU
  1
acad
  9
$ELEVATION
 40
0.0
  9
$PELEVATION
 40
0.0
  9
$THICKNESS
 40
0.0
  9
$LIMCHECK
 70
     0
  9
$BLIPMODE
 70
     0
  9
$CHAMFERA
 40
0.0
  9
$CHAMFERB
 40
0.0
  9
$CHAMFERC
 40
0.0
  9
$CHAMFERD
 40
0.0
  9
$SKPOLY
 70
     0
  9
$TDCREATE
 40
2444971.791666666
  9
$TDUPDATE
 40
2452297.082355498
  9
$TDINDWG
 40
0.0535610069
  9
$TDUSRTIMER
 40
0.0535610069
  9
$USRTIMER
 70
     1
  9
$ANGBASE
 50
0.0
  9
$ANGDIR
 70
     0
  9
$PDMODE
 70
     0
  9
$PDSIZE
 40
0.0
  9
$PLINEWID
 40
0.0
  9
$COORDS
 70
     2
  9
$SPLFRAME
 70
     0
  9
$SPLINETYPE
 70
     6
  9
$SPLINESEGS
 70
     8
  9
$ATTDIA
 70
     0
  9
$ATTREQ
 70
     1
  9
$HANDLING
 70
 22529
  9
$HANDSEED
  5
2D5
  9
$SURFTAB1
 70
     6
  9
$SURFTAB2
 70
     6
  9
$SURFTYPE
 70
     6
  9
$SURFU
 70
     6
  9
$SURFV
 70
     6
  9
$UCSNAME
  2

  9
$UCSORG
 10
0.0
 20
0.0
 30
0.0
  9
$UCSXDIR
 10
1.0
 20
0.0
 30
0.0
  9
$UCSYDIR
 10
0.0
 20
1.0
 30
0.0
  9
$PUCSNAME
  2

  9
$PUCSORG
 10
0.0
 20
0.0
 30
0.0
  9
$PUCSXDIR
 10
1.0
 20
0.0
 30
0.0
  9
$PUCSYDIR
 10
0.0
 20
1.0
 30
0.0
  9
$USERI1
 70
     0
  9
$USERI2
 70
     0
  9
$USERI3
 70
     0
  9
$USERI4
 70
     0
  9
$USERI5
 70
     0
  9
$USERR1
 40
0.0
  9
$USERR2
 40
0.0
  9
$USERR3
 40
0.0
  9
$USERR4
 40
0.0
  9
$USERR5
 40
0.0
  9
$WORLDVIEW
 70
     1
  9
$SHADEDGE
 70
     3
  9
$SHADEDIF
 70
    70
  9
$TILEMODE
 70
     1
  9
$MAXACTVP
 70
    16
  9
$PINSBASE
 10
0.0
 20
0.0
 30
0.0
  9
$PLIMCHECK
 70
     0
  9
$PEXTMIN
 10
1.000000000000000E+20
 20
1.000000000000000E+20
 30
1.000000000000000E+20
  9
$PEXTMAX
 10
-1.000000000000000E+20
 20
-1.000000000000000E+20
 30
-1.000000000000000E+20
  9
$PLIMMIN
 10
0.0
 20
0.0
  9
$PLIMMAX
 10
12.0
 20
9.0
  9
$UNITMODE
 70
     0
  9
$VISRETAIN
 70
     0
  9
$PLINEGEN
 70
     0
  9
$PSLTSCALE
 70
     0
  9
$TREEDEPTH
 70
  3020
  9
$PICKSTYLE
 70
     1
  9
$CMLSTYLE
  2
STANDARD
  9
$CMLJUST
 70
     0
  9
$CMLSCALE
 40
1.0
  9
$PROXYGRAPHICS
 70
     1
  9
$MEASUREMENT
 70
     0
  0
ENDSEC
  0
SECTION
  2
CLASSES
  0
CLASS
  1
LWPOLYLINE
  2
AcDbPolyline
  3
AutoCAD 2000
 90
        0
280
     0
281
     1
  0
CLASS
  1
IMAGE
  2
AcDbRasterImage
  3
ISM
 90
      127
280
     0
281
     1
  0
CLASS
  1
OLE2FRAME
  2
AcDbOle2Frame
  3
AutoCAD 2000
 90
        0
280
     0
281
     1
  0
CLASS
  1
HATCH
  2
AcDbHatch
  3
AutoCAD 2000
 90
        0
280
     0
281
     1
  0
CLASS
  1
DICTIONARYVAR
  2
AcDbDictionaryVar
  3
AutoCAD 2000
 90
        0
280
     0
281
     0
  0
CLASS
  1
RASTERVARIABLES
  2
AcDbRasterVariables
  3
ISM
 90
        0
280
     0
281
     0
  0
CLASS
  1
IMAGEDEF
  2
AcDbRasterImageDef
  3
ISM
 90
        0
280
     0
281
     0
  0
CLASS
  1
IMAGEDEF_REACTOR
  2
AcDbRasterImageDefReactor
  3
ISM
 90
        1
280
     0
281
     0
  0
CLASS
  1
IDBUFFER
  2
AcDbIdBuffer
  3
AutoCAD 2000
 90
        0
280
     0
281
     0
  0
CLASS
  1
SPATIAL_FILTER
  2
AcDbSpatialFilter
  3
AutoCAD 2000
 90
        0
280
     0
281
     0
  0
CLASS
  1
XRECORD
  2
AcDbXrecord
  3
AutoCAD 2000
 90
        0
280
     0
281
     0
  0
CLASS
  1
SORTENTSTABLE
  2
AcDbSortentsTable
  3
AutoCAD 2000
 90
        0
280
     0
281
     0
  0
CLASS
  1
LAYER_INDEX
  2
AcDbLayerIndex
  3
AutoCAD 2000
 90
        0
280
     0
281
     0
  0
CLASS
  1
SPATIAL_INDEX
  2
AcDbSpatialIndex
  3
AutoCAD 2000
 90
        0
280
     0
281
     0
  0
CLASS
  1
OBJECT_PTR
  2
CAseDLPNTableRecord
  3
ASE-LPNTableRecord
 90
        1
280
     0
281
     0
  0
CLASS
  1
ACDBDICTIONARYWDFLT
  2
AcDbDictionaryWithDefault
  3
AutoCAD 2000
 90
        0
280
     0
281
     0
  0
CLASS
  1
ACDBPLACEHOLDER
  2
AcDbPlaceHolder
  3
AutoCAD 2000
 90
        0
280
     0
281
     0
  0
CLASS
  1
LAYOUT
  2
AcDbLayout
  3
AutoCAD 2000
 90
        0
280
     0
281
     0
  0
CLASS
  1
LONG_TRANSACTION
  2
AcDbLongTransaction
  3
AutoCAD 2000
 90
        0
280
     0
281
     0
  0
CLASS
  1
LWPOLYLINE
  2
AcDbPolyline
  3
AutoCAD 2000
 90
        0
280
     0
281
     1
  0
CLASS
  1
HATCH
  2
AcDbHatch
  3
AutoCAD 2000
 90
        0
280
     0
281
     1
  0
CLASS
  1
XRECORD
  2
AcDbXrecord
  3
AutoCAD 2000
 90
        0
280
     0
281
     0
  0
CLASS
  1
LONG_TRANSACTION
  2
AcDbLongTransaction
  3
AutoCAD 2000
 90
        0
280
     0
281
     0
  0
CLASS
  1
LWPOLYLINE
  2
AcDbPolyline
  3
AutoCAD 2000
 90
        0
280
     0
281
     1
  0
CLASS
  1
HATCH
  2
AcDbHatch
  3
AutoCAD 2000
 90
        0
280
     0
281
     1
  0
CLASS
  1
XRECORD
  2
AcDbXrecord
  3
AutoCAD 2000
 90
        0
280
     0
281
     0
  0
CLASS
  1
LONG_TRANSACTION
  2
AcDbLongTransaction
  3
AutoCAD 2000
 90
        0
280
     0
281
     0
  0
CLASS
  1
LWPOLYLINE
  2
AcDbPolyline
  3
AutoCAD 2000
 90
        0
280
     0
281
     1
  0
CLASS
  1
HATCH
  2
AcDbHatch
  3
AutoCAD 2000
 90
        0
280
     0
281
     1
  0
CLASS
  1
XRECORD
  2
AcDbXrecord
  3
AutoCAD 2000
 90
        0
280
     0
281
     0
  0
CLASS
  1
LONG_TRANSACTION
  2
AcDbLongTransaction
  3
AutoCAD 2000
 90
        0
280
     0
281
     0
  0
CLASS
  1
LWPOLYLINE
  2
AcDbPolyline
  3
AutoCAD 2000
 90
        0
280
     0
281
     1
  0
CLASS
  1
HATCH
  2
AcDbHatch
  3
AutoCAD 2000
 90
        0
280
     0
281
     1
  0
CLASS
  1
XRECORD
  2
AcDbXrecord
  3
AutoCAD 2000
 90
        0
280
     0
281
     0
  0
CLASS
  1
LONG_TRANSACTION
  2
AcDbLongTransaction
  3
AutoCAD 2000
 90
        0
280
     0
281
     0
  0
CLASS
  1
LWPOLYLINE
  2
AcDbPolyline
  3
AutoCAD 2000
 90
        0
280
     0
281
     1
  0
CLASS
  1
HATCH
  2
AcDbHatch
  3
AutoCAD 2000
 90
        0
280
     0
281
     1
  0
CLASS
  1
XRECORD
  2
AcDbXrecord
  3
AutoCAD 2000
 90
        0
280
     0
281
     0
  0
CLASS
  1
LONG_TRANSACTION
  2
AcDbLongTransaction
  3
AutoCAD 2000
 90
        0
280
     0
281
     0
  0
CLASS
  1
LWPOLYLINE
  2
AcDbPolyline
  3
AutoCAD 2000
 90
        0
280
     0
281
     1
  0
CLASS
  1
HATCH
  2
AcDbHatch
  3
AutoCAD 2000
 90
        0
280
     0
281
     1
  0
CLASS
  1
XRECORD
  2
AcDbXrecord
  3
AutoCAD 2000
 90
        0
280
     0
281
     0
  0
ENDSEC
  0
SECTION
  2
TABLES
  0
TABLE
  2
VPORT
  5
7
330
0
100
AcDbSymbolTable
 70
     3
  0
VPORT
  5
2D
330
7
100
AcDbSymbolTableRecord
100
AcDbViewportTableRecord
  2
DCADVPORT
 70
     0
 10
0.1052181999953332
 20
-0.1181944424694545
 11
2.40928306775983
 21
1.876768153229466
 12
6.209999999999999
 22
9.019999999999999
 13
0.0
 23
0.0
 14
1.0
 24
1.0
 15
0.0
 25
0.0
 16
0.0
 26
0.0
 36
1.0
 17
0.0
 27
0.0
 37
0.0
 40
18.04
 41
0.688564
 42
50.0
 43
1.0
 44
1.0
 50
0.0
 51
0.0
 71
     0
 72
   100
 73
     1
 74
     1
 75
     0
 76
     0
 77
     0
 78
     0
  0
VPORT
  5
2B2
330
7
100
AcDbSymbolTableRecord
100
AcDbViewportTableRecord
  2
*ACTIVE
 70
     0
 10
0.0
 20
0.0
 11
1.0
 21
1.0
 12
0.9884731985223961
 22
0.7502848420804524
 13
0.0
 23
0.0
 14
1.0
 24
1.0
 15
0.0
 25
0.0
 16
0.0
 26
0.0
 36
1.0
 17
0.0
 27
0.0
 37
0.0
 40
4.181882790308915
 41
1.570528967254408
 42
50.0
 43
0.0
 44
0.0
 50
0.0
 51
0.0
 71
     0
 72
   100
 73
     1
 74
     1
 75
     0
 76
     0
 77
     0
 78
     0
  0
ENDTAB
  0
TABLE
  2
LTYPE
  5
4
330
0
100
AcDbSymbolTable
 70
     2
  0
LTYPE
  5
11
330
4
100
AcDbSymbolTableRecord
100
AcDbLinetypeTableRecord
  2
BYBLOCK
 70
     0
  3

 72
    65
 73
     0
 40
0.0
  0
LTYPE
  5
12
330
4
100
AcDbSymbolTableRecord
100
AcDbLinetypeTableRecord
  2
BYLAYER
 70
     0
  3

 72
    65
 73
     0
 40
0.0
  0
LTYPE
  5
13
330
4
100
AcDbSymbolTableRecord
100
AcDbLinetypeTableRecord
  2
CONTINUOUS
 70
     0
  3
Solid line
 72
    65
 73
     0
 40
0.0
  0
LTYPE
  5
1E
330
4
100
AcDbSymbolTableRecord
100
AcDbLinetypeTableRecord
  2
CONTINUOUS
 70
     0
  3
Solid line
 72
    65
 73
     0
 40
0.0
  0
ENDTAB
  0
TABLE
  2
LAYER
  5
2
330
0
100
AcDbSymbolTable
 70
     4
  0
LAYER
  5
14
330
2
100
AcDbSymbolTableRecord
100
AcDbLayerTableRecord
  2
0
 70
     0
 62
     7
  6
CONTINUOUS
  0
LAYER
  5
2A
330
2
100
AcDbSymbolTableRecord
100
AcDbLayerTableRecord
  2
ADPDIM
 70
     0
 62
     3
  6
CONTINUOUS
  0
LAYER
  5
2B
330
2
100
AcDbSymbolTableRecord
100
AcDbLayerTableRecord
  2
ADP1DETAIL
 70
     0
 62
   250
  6
CONTINUOUS
  0
LAYER
  5
2C
330
2
100
AcDbSymbolTableRecord
100
AcDbLayerTableRecord
  2
DEFPOINTS
 70
     0
 62
   250
  6
CONTINUOUS
  0
ENDTAB
  0
TABLE
  2
STYLE
  5
3
330
0
100
AcDbSymbolTable
 70
     2
  0
STYLE
  5
17
330
3
100
AcDbSymbolTableRecord
100
AcDbTextStyleTableRecord
  2
STANDARD
 70
     0
 40
0.0
 41
1.0
 50
0.0
 71
     0
 42
0.0
  3
txt
  4

  0
STYLE
  5
F0
330
3
100
AcDbSymbolTableRecord
100
AcDbTextStyleTableRecord
  2
ARIAL_WIDE
 70
     0
 40
0.0
 41
1.25
 50
0.0
 71
     0
 42
0.2
  3
ARIAL.TTF
  4

1001
ACAD
1000
Arial
1071
       34
  0
ENDTAB
  0
TABLE
  2
VIEW
  5
5
330
0
100
AcDbSymbolTable
 70
     0
  0
ENDTAB
  0
TABLE
  2
UCS
  5
6
330
0
100
AcDbSymbolTable
 70
     0
  0
ENDTAB
  0
TABLE
  2
APPID
  5
8
330
0
100
AcDbSymbolTable
 70
     1
  0
APPID
  5
16
330
8
100
AcDbSymbolTableRecord
100
AcDbRegAppTableRecord
  2
ACAD
 70
     0
  0
ENDTAB
  0
TABLE
  2
DIMSTYLE
  5
9
330
0
100
AcDbSymbolTable
 70
     1
  0
DIMSTYLE
105
18
330
9
100
AcDbSymbolTableRecord
100
AcDbDimStyleTableRecord
  2
STANDARD
 70
     0
  3

  4

  5

  6

  7

 40
1.0
 41
0.18
 42
0.0625
 43
0.38
 44
0.18
 45
0.0
 46
0.0
 47
0.0
 48
0.0
140
0.18
141
0.09
142
0.0
143
25.4
144
1.0
145
0.0
146
1.0
147
0.09
 71
     0
 72
     0
 73
     1
 74
     1
 75
     0
 76
     0
 77
     0
 78
     0
170
     0
171
     2
172
     0
173
     0
174
     0
175
     0
176
     0
177
     0
178
     0
270
     2
271
     4
272
     4
273
     2
274
     2
340
17
275
     0
280
     0
281
     0
282
     0
283
     1
284
     0
285
     0
286
     0
287
     0
288
     0
  0
ENDTAB
  0
TABLE
  2
BLOCK_RECORD
  5
1
330
0
100
AcDbSymbolTable
 70
     0
  0
BLOCK_RECORD
  5
A
102
{ACAD_XDICTIONARY
360
147
102
}
330
1
100
AcDbSymbolTableRecord
100
AcDbBlockTableRecord
  2
*MODEL_SPACE
  0
BLOCK_RECORD
  5
B
102
{ACAD_XDICTIONARY
360
149
102
}
330
1
100
AcDbSymbolTableRecord
100
AcDbBlockTableRecord
  2
*PAPER_SPACE
  0
ENDTAB
  0
ENDSEC
  0
SECTION
  2
BLOCKS
  0
BLOCK
  5
D
330
A
100
AcDbEntity
  8
0
100
AcDbBlockBegin
  2
*MODEL_SPACE
 70
     0
 10
0.0
 20
0.0
 30
0.0
  3
*MODEL_SPACE
  1

  0
ENDBLK
  5
E
330
A
100
AcDbEntity
  8
0
100
AcDbBlockEnd
  0
BLOCK
  5
F
330
B
100
AcDbEntity
 67
     1
  8
0
100
AcDbBlockBegin
  2
*PAPER_SPACE
 70
     0
 10
0.0
 20
0.0
 30
0.0
  3
*PAPER_SPACE
  1

  0
ENDBLK
  5
10
330
B
100
AcDbEntity
 67
     1
  8
0
100
AcDbBlockEnd
  0
ENDSEC
  0
SECTION
  2
ENTITIES
  0
CIRCLE
  5
2E
330
A
100
AcDbEntity
  8
ADP1DETAIL
  6
CONTINUOUS
 62
     7
100
AcDbCircle
 10
-0.9794348629626819
 20
0.8807228030663031
 30
0.0
 40
0.1737309463988231
210
0.0
220
0.0
230
-1.0
  0
ARC
  5
2F
330
A
100
AcDbEntity
  8
ADP1DETAIL
  6
CONTINUOUS
 62
     7
100
AcDbCircle
 10
-1.281999919800234
 20
0.5584101596943503
 30
0.0
 40
0.1727790875272713
210
0.0
220
0.0
230
-1.0
100
AcDbArc
 50
281.4101794408239
 51
351.7479179144872
  0
ARC
  5
30
330
A
100
AcDbEntity
  8
ADP1DETAIL
  6
CONTINUOUS
 62
     7
100
AcDbCircle
 10
-1.595681644905367
 20
0.6296321009507172
 30
0.0
 40
0.4940919039026081
210
0.0
220
0.0
230
-1.0
100
AcDbArc
 50
348.7939641133557
 51
10.03327466566272
  0
LWPOLYLINE
  5
31
330
A
100
AcDbEntity
  8
ADP1DETAIL
  6
CONTINUOUS
 62
     7
100
AcDbPolyline
 90
        4
 70
   128
 43
0.0
 10
1.109146016787779
 20
0.7157128309332624
 10
1.151327860062986
 20
0.6765065588054485
 10
1.157684535726939
 20
0.6206499155005846
 10
1.206628588035267
 20
0.6325065875690847
  0
ARC
  5
37
330
A
100
AcDbEntity
  8
ADP1DETAIL
  6
CONTINUOUS
 62
     7
100
AcDbCircle
 10
-1.209585450353671
 20
0.5118246384691185
 30
0.0
 40
0.1207181671221717
210
0.0
220
0.0
230
-1.0
100
AcDbArc
 50
88.59646082859914
 51
137.9082583167626
  0
ARC
  5
38
330
A
100
AcDbEntity
  8
ADP1DETAIL
  6
CONTINUOUS
 62
     7
100
AcDbCircle
 10
-1.246473913168956
 20
1.232627909062333
 30
0.0
 40
0.172779087527271
210
0.0
220
0.0
230
-1.0
100
AcDbArc
 50
1.759560361252066
 51
72.09729883491474
  0
ARC
  5
39
330
A
100
AcDbEntity
  8
ADP1DETAIL
  6
CONTINUOUS
 62
     7
100
AcDbCircle
 10
-1.566197195376252
 20
1.197331841351465
 30
0.0
 40
0.4940919039026077
210
0.0
220
0.0
230
-1.0
100
AcDbArc
 50
343.4742036100763
 51
4.713514162383309
  0
LWPOLYLINE
  5
3A
330
A
100
AcDbEntity
  8
ADP1DETAIL
  6
CONTINUOUS
 62
     7
100
AcDbPolyline
 90
        4
 70
   128
 43
0.0
 10
1.092515355994893
 20
1.056788878018545
 10
1.129993479550337
 20
1.100513355499896
 10
1.129993479550337
 20
1.156730540833062
 10
1.179964310957595
 20
1.150484186907154
  0
ARC
  5
40
330
A
100
AcDbEntity
  8
ADP1DETAIL
  6
CONTINUOUS
 62
     7
100
AcDbCircle
 10
-1.169256275656039
 20
1.270726499980868
 30
0.0
 40
0.1207181671221715
210
0.0
220
0.0
230
-1.0
100
AcDbArc
 50
215.5992199589763
 51
264.91101744714
  0
ARC
  5
41
330
A
100
AcDbEntity
  8
ADP1DETAIL
  6
CONTINUOUS
 62
     7
100
AcDbCircle
 10
-1.369186736434193
 20
0.6032280741255145
 30
0.0
 40
0.3654658806237885
210
0.0
220
0.0
230
-1.0
100
AcDbArc
 50
317.4959188115473
 51
17.2905707260299
  0
ARC
  5
42
330
A
100
AcDbEntity
  8
ADP1DETAIL
  6
CONTINUOUS
 62
     7
100
AcDbCircle
 10
-1.354135699631723
 20
0.587175083825422
 30
0.0
 40
0.3435277684630287
210
0.0
220
0.0
230
-1.0
100
AcDbArc
 50
287.8200491986964
 51
317.7737210777824
  0
ARC
  5
43
330
A
100
AcDbEntity
  8
ADP1DETAIL
  6
CONTINUOUS
 62
     7
100
AcDbCircle
 10
-1.24368068824933
 20
0.4795564241055559
 30
0.0
 40
0.2194920797076916
210
0.0
220
0.0
230
-1.0
100
AcDbArc
 50
225.006824555394
 51
268.6096435280985
  0
ARC
  5
44
330
A
100
AcDbEntity
  8
ADP1DETAIL
  6
CONTINUOUS
 62
     7
100
AcDbCircle
 10
-1.338169287688924
 20
1.197955950070024
 30
0.0
 40
0.3654658806237883
210
0.0
220
0.0
230
-1.0
100
AcDbArc
 50
336.612463493065
 51
36.01155946419186
  0
ARC
  5
45
330
A
100
AcDbEntity
  8
ADP1DETAIL
  6
CONTINUOUS
 62
     7
100
AcDbCircle
 10
-1.321399610565624
 20
1.212204112603636
 30
0.0
 40
0.3435277684630287
210
0.0
220
0.0
230
-1.0
100
AcDbArc
 50
35.73375719795643
 51
65.68742907704245
  0
ARC
  5
46
330
A
100
AcDbEntity
  8
ADP1DETAIL
  6
CONTINUOUS
 62
     7
100
AcDbCircle
 10
-1.19948416697606
 20
1.306643035054836
 30
0.0
 40
0.2194920797076915
210
0.0
220
0.0
230
-1.0
100
AcDbArc
 50
84.89783474764051
 51
128.5006537203448
  0
CIRCLE
  5
47
330
A
100
AcDbEntity
  8
ADP1DETAIL
  6
CONTINUOUS
 62
     7
100
AcDbCircle
 10
-0.9794348629626819
 20
0.8807228030663031
 30
0.0
 40
0.698499202474384
210
0.0
220
0.0
230
-1.0
  0
CIRCLE
  5
48
330
A
100
AcDbEntity
  8
ADP1DETAIL
  6
CONTINUOUS
 62
     7
100
AcDbCircle
 10
-0.9794348629626819
 20
0.8807228030663031
 30
0.0
 40
0.7755995659785252
210
0.0
220
0.0
230
-1.0
  0
CIRCLE
  5
49
330
A
100
AcDbEntity
  8
ADP1DETAIL
  6
CONTINUOUS
 62
     7
100
AcDbCircle
 10
-0.9794348629626819
 20
0.8807228030663031
 30
0.0
 40
0.8742166629673487
210
0.0
220
0.0
230
-1.0
  0
ARC
  5
4A
330
A
100
AcDbEntity
  8
ADP1DETAIL
  6
CONTINUOUS
 62
     7
100
AcDbCircle
 10
-0.1977148623448672
 20
1.132847242894401
 30
0.0
 40
0.0500784236244781
210
0.0
220
0.0
230
-1.0
100
AcDbArc
 50
19.60884551096408
 51
196.3419512468668
  0
ARC
  5
4B
330
A
100
AcDbEntity
  8
ADP1DETAIL
  6
CONTINUOUS
 62
     7
100
AcDbCircle
 10
-0.4500462346228168
 20
1.181772929829538
 30
0.0
 40
0.0880985897339857
210
0.0
220
0.0
230
-1.0
100
AcDbArc
 50
36.94747936147273
 51
261.468031829754
  0
ARC
  5
4C
330
A
100
AcDbEntity
  8
ADP1DETAIL
  6
CONTINUOUS
 62
     7
100
AcDbCircle
 10
-0.6768698061251302
 20
1.203035446438253
 30
0.0
 40
0.172779087527271
210
0.0
220
0.0
230
-1.0
100
AcDbArc
 50
101.4101794408228
 51
171.7479179144857
  0
ARC
  5
4D
330
A
100
AcDbEntity
  8
ADP1DETAIL
  6
CONTINUOUS
 62
     7
100
AcDbCircle
 10
-0.3631880810199943
 20
1.131813505181881
 30
0.0
 40
0.4940919039026089
210
0.0
220
0.0
230
-1.0
100
AcDbArc
 50
168.793964113354
 51
190.0332746656625
  0
LWPOLYLINE
  5
4E
330
A
100
AcDbEntity
  8
ADP1DETAIL
  6
CONTINUOUS
 62
     7
100
AcDbPolyline
 90
        4
 70
   128
 43
0.0
 10
0.8497237091375847
 20
1.045732775199343
 10
0.8075418658623778
 20
1.084939047327157
 10
0.8011851901984242
 20
1.140795690632021
 10
0.7522411378900965
 20
1.128939018563521
  0
ARC
  5
54
330
A
100
AcDbEntity
  8
ADP1DETAIL
  6
CONTINUOUS
 62
     7
100
AcDbCircle
 10
-0.7492842755716943
 20
1.249620967663486
 30
0.0
 40
0.1207181671221718
210
0.0
220
0.0
230
-1.0
100
AcDbArc
 50
268.5964608286005
 51
317.9082583167641
  0
ARC
  5
55
330
A
100
AcDbEntity
  8
ADP1DETAIL
  6
CONTINUOUS
 62
     7
100
AcDbCircle
 10
-0.6275297569666521
 20
1.147761853272577
 30
0.0
 40
0.1727790875272712
210
0.0
220
0.0
230
-1.0
100
AcDbArc
 50
271.7595603612529
 51
342.0972988349157
  0
ARC
  5
56
330
A
100
AcDbEntity
  8
ADP1DETAIL
  6
CONTINUOUS
 62
     7
100
AcDbCircle
 10
-0.6628258246775261
 20
1.467485135479873
 30
0.0
 40
0.4940919039026081
210
0.0
220
0.0
230
-1.0
100
AcDbArc
 50
253.474203610077
 51
274.7135141623849
  0
LWPOLYLINE
  5
57
330
A
100
AcDbEntity
  8
ADP1DETAIL
  6
CONTINUOUS
 62
     7
100
AcDbPolyline
 90
        4
 70
   128
 43
0.0
 10
0.8033687880104395
 20
0.9938032960985145
 10
0.7596443105290886
 20
1.031281419653958
 10
0.7034271251959229
 20
1.031281419653958
 10
0.7096734791218311
 20
1.081252251061216
  0
ARC
  5
5D
330
A
100
AcDbEntity
  8
ADP1DETAIL
  6
CONTINUOUS
 62
     7
100
AcDbCircle
 10
-0.5894311660481164
 20
1.07054421575966
 30
0.0
 40
0.1207181671221716
210
0.0
220
0.0
230
-1.0
100
AcDbArc
 50
125.5992199589754
 51
174.9110174471391
  0
ARC
  5
5E
330
A
100
AcDbEntity
  8
ADP1DETAIL
  6
CONTINUOUS
 62
     7
100
AcDbCircle
 10
-0.5896829894911719
 20
1.158217532007097
 30
0.0
 40
0.3654658806237889
210
0.0
220
0.0
230
-1.0
100
AcDbArc
 50
137.495918811547
 51
197.2905707260315
  0
ARC
  5
5F
330
A
100
AcDbEntity
  8
ADP1DETAIL
  6
CONTINUOUS
 62
     7
100
AcDbCircle
 10
-0.6047340262936377
 20
1.174270522307187
 30
0.0
 40
0.3435277684630292
210
0.0
220
0.0
230
-1.0
100
AcDbArc
 50
107.8200491986963
 51
137.7737210777824
  0
ARC
  5
60
330
A
100
AcDbEntity
  8
ADP1DETAIL
  6
CONTINUOUS
 62
     7
100
AcDbCircle
 10
-0.7151890376760375
 20
1.28188918202705
 30
0.0
 40
0.2194920797076912
210
0.0
220
0.0
230
-1.0
100
AcDbArc
 50
45.0068245553925
 51
88.60964352809693
  0
ARC
  5
61
330
A
100
AcDbEntity
  8
ADP1DETAIL
  6
CONTINUOUS
 62
     7
100
AcDbCircle
 10
-0.6622017159589609
 20
1.239457227792546
 30
0.0
 40
0.3654658806237887
210
0.0
220
0.0
230
-1.0
100
AcDbArc
 50
246.6124634930651
 51
306.0115594641926
  0
ARC
  5
62
330
A
100
AcDbEntity
  8
ADP1DETAIL
  6
CONTINUOUS
 62
     7
100
AcDbCircle
 10
-0.6479535534253492
 20
1.222687550669244
 30
0.0
 40
0.3435277684630287
210
0.0
220
0.0
230
-1.0
100
AcDbArc
 50
305.7337571979572
 51
335.6874290770432
  0
ARC
  5
63
330
A
100
AcDbEntity
  8
ADP1DETAIL
  6
CONTINUOUS
 62
     7
100
AcDbCircle
 10
-0.553514630974147
 20
1.100772107079679
 30
0.0
 40
0.2194920797076916
210
0.0
220
0.0
230
-1.0
100
AcDbArc
 50
354.8978347476418
 51
38.50065372034556
  0
ARC
  5
64
330
A
100
AcDbEntity
  8
ADP1DETAIL
  6
CONTINUOUS
 62
     7
100
AcDbCircle
 10
-0.3969583554268987
 20
0.3005959361680826
 30
0.0
 40
0.0500784236244781
210
0.0
220
0.0
230
-1.0
100
AcDbArc
 50
317.038562291476
 51
133.4137991333448
  0
ARC
  5
65
330
A
100
AcDbEntity
  8
ADP1DETAIL
  6
CONTINUOUS
 62
     7
100
AcDbCircle
 10
-0.4846227185942801
 20
0.5242961069284612
 30
0.0
 40
0.0880985897339856
210
0.0
220
0.0
230
-1.0
100
AcDbArc
 50
92.03944644598564
 51
316.5599989142668
  0
ARC
  5
66
330
A
100
AcDbEntity
  8
ADP1DETAIL
  6
CONTINUOUS
 62
     7
100
AcDbCircle
 10
-0.7019401340218931
 20
0.4909709295947917
 30
0.0
 40
0.3654658806237886
210
0.0
220
0.0
230
-1.0
100
AcDbArc
 50
47.4959188115466
 51
107.29057072603
  0
ARC
  5
67
330
A
100
AcDbEntity
  8
ADP1DETAIL
  6
CONTINUOUS
 62
     7
100
AcDbCircle
 10
-0.685887143721801
 20
0.5060219663972622
 30
0.0
 40
0.3435277684630288
210
0.0
220
0.0
230
-1.0
100
AcDbArc
 50
17.82004919869567
 51
47.77372107778161
  0
ARC
  5
68
330
A
100
AcDbEntity
  8
ADP1DETAIL
  6
CONTINUOUS
 62
     7
100
AcDbCircle
 10
-0.5782684840019346
 20
0.6164769777796583
 30
0.0
 40
0.2194920797076914
210
0.0
220
0.0
230
-1.0
100
AcDbArc
 50
315.0068245553934
 51
358.6096435280978
  0
ARC
  5
69
330
A
100
AcDbEntity
  8
ADP1DETAIL
  6
CONTINUOUS
 62
     7
100
AcDbCircle
 10
-0.268249775569962
 20
0.4678753434387536
 30
0.0
 40
0.0500784236244781
210
0.0
220
0.0
230
-1.0
100
AcDbArc
 50
148.9432474969113
 51
330.9053613260299
  0
CIRCLE
  5
6A
330
A
100
AcDbEntity
  8
ADP1DETAIL
  6
CONTINUOUS
 62
     7
100
AcDbCircle
 10
-0.3240235062520838
 20
0.3820910395402199
 30
0.0
 40
0.0500784236244781
210
0.0
220
0.0
230
-1.0
  0
ARC
  5
6B
330
A
100
AcDbEntity
  8
ADP1DETAIL
  6
CONTINUOUS
 62
     7
100
AcDbCircle
 10
-0.678384736199447
 20
0.3513341747264378
 30
0.0
 40
0.0880985897339857
210
0.0
220
0.0
230
-1.0
100
AcDbArc
 50
306.9474793614736
 51
171.4680318297532
  0
ARC
  5
6C
330
A
100
AcDbEntity
  8
ADP1DETAIL
  6
CONTINUOUS
 62
     7
100
AcDbCircle
 10
-0.7123958127564097
 20
0.5288176970702737
 30
0.0
 40
0.1727790875272712
210
0.0
220
0.0
230
-1.0
100
AcDbArc
 50
181.7595603612532
 51
252.0972988349165
  0
ARC
  5
6D
330
A
100
AcDbEntity
  8
ADP1DETAIL
  6
CONTINUOUS
 62
     7
100
AcDbCircle
 10
-0.3926725305491116
 20
0.5641137647811472
 30
0.0
 40
0.4940919039026082
210
0.0
220
0.0
230
-1.0
100
AcDbArc
 50
163.4742036100762
 51
184.7135141623848
  0
LWPOLYLINE
  5
6E
330
A
100
AcDbEntity
  8
ADP1DETAIL
  6
CONTINUOUS
 62
     7
100
AcDbPolyline
 90
        4
 70
   128
 43
0.0
 10
0.8663543699304705
 20
0.7046567281140608
 10
0.8288762463750261
 20
0.6609322506327099
 10
0.8288762463750261
 20
0.6047150652995441
 10
0.7789054149677687
 20
0.6109614192254523
  0
ARC
  5
74
330
A
100
AcDbEntity
  8
ADP1DETAIL
  6
CONTINUOUS
 62
     7
100
AcDbCircle
 10
-0.7896134502693262
 20
0.4907191061517379
 30
0.0
 40
0.1207181671221716
210
0.0
220
0.0
230
-1.0
100
AcDbArc
 50
35.59921995897493
 51
84.91101744713834
  0
ARC
  5
75
330
A
100
AcDbEntity
  8
ADP1DETAIL
  6
CONTINUOUS
 62
     7
100
AcDbCircle
 10
-0.6207004382364357
 20
0.5634896560625778
 30
0.0
 40
0.3654658806237887
210
0.0
220
0.0
230
-1.0
100
AcDbArc
 50
156.6124634930639
 51
216.0115594641919
  0
ARC
  5
76
330
A
100
AcDbEntity
  8
ADP1DETAIL
  6
CONTINUOUS
 62
     7
100
AcDbCircle
 10
-0.6374701153597357
 20
0.5492414935289686
 30
0.0
 40
0.3435277684630291
210
0.0
220
0.0
230
-1.0
100
AcDbArc
 50
215.7337571979565
 51
245.6874290770425
  0
ARC
  5
77
330
A
100
AcDbEntity
  8
ADP1DETAIL
  6
CONTINUOUS
 62
     7
100
AcDbCircle
 10
-0.7593855589493062
 20
0.454802571077768
 30
0.0
 40
0.2194920797076917
210
0.0
220
0.0
230
-1.0
100
AcDbArc
 50
264.8978347476418
 51
308.5006537203464
  0
ARC
  5
78
330
A
100
AcDbEntity
  8
ADP1DETAIL
  6
CONTINUOUS
 62
     7
100
AcDbCircle
 10
-0.538537825619977
 20
0.1847871063470217
 30
0.0
 40
0.0500784236244781
210
0.0
220
0.0
230
-1.0
100
AcDbArc
 50
120.8024877955433
 51
304.1095864013673
  0
ARC
  5
79
330
A
100
AcDbEntity
  8
ADP1DETAIL
  6
CONTINUOUS
 62
     7
100
AcDbCircle
 10
-0.7273104231345834
 20
0.099002802448488
 30
0.0
 40
0.0500784236244781
210
0.0
220
0.0
230
-1.0
100
AcDbArc
 50
289.6088455109648
 51
106.341951246866
  0
CIRCLE
  5
7A
330
A
100
AcDbEntity
  8
ADP1DETAIL
  6
CONTINUOUS
 62
     7
100
AcDbCircle
 10
-0.6294058418892332
 20
0.1357253451621852
 30
0.0
 40
0.0500784236244781
210
0.0
220
0.0
230
-1.0
  0
ARC
  5
7B
330
A
100
AcDbEntity
  8
ADP1DETAIL
  6
CONTINUOUS
 62
     7
100
AcDbCircle
 10
-0.657122219590729
 20
0.578157746228751
 30
0.0
 40
0.1727790875272711
210
0.0
220
0.0
230
-1.0
100
AcDbArc
 50
11.41017944082309
 51
81.74791791448644
  0
ARC
  5
7C
330
A
100
AcDbEntity
  8
ADP1DETAIL
  6
CONTINUOUS
 62
     7
100
AcDbCircle
 10
-0.7283441608470964
 20
0.2644760211236169
 30
0.0
 40
0.4940919039026086
210
0.0
220
0.0
230
-1.0
100
AcDbArc
 50
78.79396411335488
 51
100.0332746656626
  0
LWPOLYLINE
  5
7D
330
A
100
AcDbEntity
  8
ADP1DETAIL
  6
CONTINUOUS
 62
     7
100
AcDbPolyline
 90
        4
 70
   128
 43
0.0
 10
0.8144248908296411
 20
0.7510116492412058
 10
0.7752186187018272
 20
0.708829805965999
 10
0.7193619753969634
 20
0.7024731303020453
 10
0.7312186474654635
 20
0.6535290779937176
  0
ARC
  5
83
330
A
100
AcDbEntity
  8
ADP1DETAIL
  6
CONTINUOUS
 62
     7
100
AcDbCircle
 10
-0.6105366983654972
 20
0.6505722156753145
 30
0.0
 40
0.1207181671221715
210
0.0
220
0.0
230
-1.0
100
AcDbArc
 50
178.5964608285992
 51
227.9082583167634
  0
CIRCLE
  5
84
330
A
100
AcDbEntity
  8
ADP1DETAIL
  6
CONTINUOUS
 62
     7
100
AcDbCircle
 10
-0.9794348629626819
 20
0.8807228030663031
 30
0.0
 40
0.0881028220833989
210
0.0
220
0.0
230
-1.0
  0
ARC
  5
85
330
A
100
AcDbEntity
  8
ADP1DETAIL
  6
CONTINUOUS
 62
     7
100
AcDbCircle
 10
-0.3993079960644617
 20
1.463199310602086
 30
0.0
 40
0.050078423624478
210
0.0
220
0.0
230
-1.0
100
AcDbArc
 50
47.03856229147524
 51
223.4137991333456
  0
ARC
  5
86
330
A
100
AcDbEntity
  8
ADP1DETAIL
  6
CONTINUOUS
 62
     7
100
AcDbCircle
 10
-0.2834991662434008
 20
1.321619840409008
 30
0.0
 40
0.050078423624478
210
0.0
220
0.0
230
-1.0
100
AcDbArc
 50
210.8024877955442
 51
34.10958640136641
  0
CIRCLE
  5
87
330
A
100
AcDbEntity
  8
ADP1DETAIL
  6
CONTINUOUS
 62
     7
100
AcDbCircle
 10
-0.2344374050585645
 20
1.230751824139751
 30
0.0
 40
0.0500784236244781
210
0.0
220
0.0
230
-1.0
  0
ARC
  5
88
330
A
100
AcDbEntity
  8
ADP1DETAIL
  6
CONTINUOUS
 62
     7
100
AcDbCircle
 10
-0.5665874033351325
 20
1.591907890459023
 30
0.0
 40
0.0500784236244782
210
0.0
220
0.0
230
-1.0
100
AcDbArc
 50
238.9432474969122
 51
60.90536132602927
  0
ARC
  5
89
330
A
100
AcDbEntity
  8
ADP1DETAIL
  6
CONTINUOUS
 62
     7
100
AcDbCircle
 10
-0.6230081668248401
 20
1.375534947434704
 30
0.0
 40
0.0880985897339857
210
0.0
220
0.0
230
-1.0
100
AcDbArc
 50
182.0394464459864
 51
46.55999891426611
  0
CIRCLE
  5
8A
330
A
100
AcDbEntity
  8
ADP1DETAIL
  6
CONTINUOUS
 62
     7
100
AcDbCircle
 10
-0.4808030994365989
 20
1.536134159776901
 30
0.0
 40
0.0500784236244781
210
0.0
220
0.0
230
-1.0
  0
ARC
  5
8B
330
A
100
AcDbEntity
  8
ADP1DETAIL
  6
CONTINUOUS
 62
     7
100
AcDbCircle
 10
-1.301747506334632
 20
1.183287859903855
 30
0.0
 40
0.1727790875272712
210
0.0
220
0.0
230
-1.0
100
AcDbArc
 50
191.4101794408236
 51
261.7479179144865
  0
ARC
  5
8C
330
A
100
AcDbEntity
  8
ADP1DETAIL
  6
CONTINUOUS
 62
     7
100
AcDbCircle
 10
-1.23052556507826
 20
1.49696958500899
 30
0.0
 40
0.4940919039026083
210
0.0
220
0.0
230
-1.0
100
AcDbArc
 50
258.7939641133548
 51
280.0332746656626
  0
LWPOLYLINE
  5
8D
330
A
100
AcDbEntity
  8
ADP1DETAIL
  6
CONTINUOUS
 62
     7
100
AcDbPolyline
 90
        4
 70
   128
 43
0.0
 10
1.144444835095722
 20
1.0104339568914
 10
1.183651107223536
 20
1.052615800166607
 10
1.2395077505284
 20
1.058972475830561
 10
1.2276510784599
 20
1.107916528138888
  0
ARC
  5
93
330
A
100
AcDbEntity
  8
ADP1DETAIL
  6
CONTINUOUS
 62
     7
100
AcDbCircle
 10
-1.348333027559865
 20
1.11087339045729
 30
0.0
 40
0.1207181671221714
210
0.0
220
0.0
230
-1.0
100
AcDbArc
 50
358.5964608286007
 51
47.9082583167635
  0
ARC
  5
94
330
A
100
AcDbEntity
  8
ADP1DETAIL
  6
CONTINUOUS
 62
     7
100
AcDbCircle
 10
-1.256929591903475
 20
1.270474676537813
 30
0.0
 40
0.3654658806237889
210
0.0
220
0.0
230
-1.0
100
AcDbArc
 50
227.4959188115477
 51
287.2905707260316
  0
ARC
  5
95
330
A
100
AcDbEntity
  8
ADP1DETAIL
  6
CONTINUOUS
 62
     7
100
AcDbCircle
 10
-1.272982582203566
 20
1.255423639735347
 30
0.0
 40
0.3435277684630292
210
0.0
220
0.0
230
-1.0
100
AcDbArc
 50
197.8200491986972
 51
227.7737210777832
  0
ARC
  5
96
330
A
100
AcDbEntity
  8
ADP1DETAIL
  6
CONTINUOUS
 62
     7
100
AcDbCircle
 10
-1.380601241923429
 20
1.14496862835295
 30
0.0
 40
0.2194920797076914
210
0.0
220
0.0
230
-1.0
100
AcDbArc
 50
135.006824555393
 51
178.6096435280976
  0
ARC
  5
97
330
A
100
AcDbEntity
  8
ADP1DETAIL
  6
CONTINUOUS
 62
     7
100
AcDbCircle
 10
-1.335861559100524
 20
0.3859106586979013
 30
0.0
 40
0.0880985897339857
210
0.0
220
0.0
230
-1.0
100
AcDbArc
 50
2.039446445985644
 51
226.5599989142668
  0
ARC
  5
98
330
A
100
AcDbEntity
  8
ADP1DETAIL
  6
CONTINUOUS
 62
     7
100
AcDbCircle
 10
-1.675370559681963
 20
0.4398257657235981
 30
0.0
 40
0.0500784236244781
210
0.0
220
0.0
230
-1.0
100
AcDbArc
 50
30.80248779554336
 51
214.1095864013673
  0
CIRCLE
  5
99
330
A
100
AcDbEntity
  8
ADP1DETAIL
  6
CONTINUOUS
 62
     7
100
AcDbCircle
 10
-1.478066626488764
 20
0.2253114463557047
 30
0.0
 40
0.050078423624478
210
0.0
220
0.0
230
-1.0
  0
ARC
  5
9A
330
A
100
AcDbEntity
  8
ADP1DETAIL
  6
CONTINUOUS
 62
     7
100
AcDbCircle
 10
-1.392282322590231
 20
0.1695377156735831
 30
0.0
 40
0.0500784236244781
210
0.0
220
0.0
230
-1.0
100
AcDbArc
 50
58.94324749691131
 51
240.90536132603
  0
ARC
  5
9B
330
A
100
AcDbEntity
  8
ADP1DETAIL
  6
CONTINUOUS
 62
     7
100
AcDbCircle
 10
-1.559561729860902
 20
0.2982462955305198
 30
0.0
 40
0.0500784236244782
210
0.0
220
0.0
230
-1.0
100
AcDbArc
 50
227.0385622914762
 51
43.41379913334476
  0
ARC
  5
9C
330
A
100
AcDbEntity
  8
ADP1DETAIL
  6
CONTINUOUS
 62
     7
100
AcDbCircle
 10
-1.331339968958711
 20
0.6136837528600309
 30
0.0
 40
0.1727790875272712
210
0.0
220
0.0
230
-1.0
100
AcDbArc
 50
91.75956036125239
 51
162.0972988349157
  0
ARC
  5
9D
330
A
100
AcDbEntity
  8
ADP1DETAIL
  6
CONTINUOUS
 62
     7
100
AcDbCircle
 10
-1.296043901247845
 20
0.2939604706527325
 30
0.0
 40
0.4940919039026081
210
0.0
220
0.0
230
-1.0
100
AcDbArc
 50
73.4742036100755
 51
94.71351416238325
  0
LWPOLYLINE
  5
9E
330
A
100
AcDbEntity
  8
ADP1DETAIL
  6
CONTINUOUS
 62
     7
100
AcDbPolyline
 90
        4
 70
   128
 43
0.0
 10
1.155500937914924
 20
0.7676423100340918
 10
1.199225415396275
 20
0.7301641864786475
 10
1.255442600729441
 20
0.7301641864786475
 10
1.249196246803533
 20
0.68019335507139
  0
ARC
  5
A4
330
A
100
AcDbEntity
  8
ADP1DETAIL
  6
CONTINUOUS
 62
     7
100
AcDbCircle
 10
-1.369438559877247
 20
0.6909013903729474
 30
0.0
 40
0.1207181671221714
210
0.0
220
0.0
230
-1.0
100
AcDbArc
 50
305.5992199589756
 51
354.9110174471392
  0
ARC
  5
A5
330
A
100
AcDbEntity
  8
ADP1DETAIL
  6
CONTINUOUS
 62
     7
100
AcDbCircle
 10
-1.508823491302547
 20
0.5796726763030682
 30
0.0
 40
0.0880985897339857
210
0.0
220
0.0
230
-1.0
100
AcDbArc
 50
216.9474793614735
 51
81.46803182975316
  0
ARC
  5
A6
330
A
100
AcDbEntity
  8
ADP1DETAIL
  6
CONTINUOUS
 62
     7
100
AcDbCircle
 10
-1.296668009966407
 20
0.521988378340057
 30
0.0
 40
0.3654658806237887
210
0.0
220
0.0
230
-1.0
100
AcDbArc
 50
66.61246349306402
 51
126.011559464191
  0
ARC
  5
A7
330
A
100
AcDbEntity
  8
ADP1DETAIL
  6
CONTINUOUS
 62
     7
100
AcDbCircle
 10
-1.310916172500016
 20
0.538758055463357
 30
0.0
 40
0.3435277684630287
210
0.0
220
0.0
230
-1.0
100
AcDbArc
 50
125.7337571979557
 51
155.6874290770417
  0
ARC
  5
A8
330
A
100
AcDbEntity
  8
ADP1DETAIL
  6
CONTINUOUS
 62
     7
100
AcDbCircle
 10
-1.405355094951215
 20
0.6606734990529249
 30
0.0
 40
0.2194920797076918
210
0.0
220
0.0
230
-1.0
100
AcDbArc
 50
174.8978347476404
 51
218.5006537203455
  0
CIRCLE
  5
A9
330
A
100
AcDbEntity
  8
ADP1DETAIL
  6
CONTINUOUS
 62
     7
100
AcDbCircle
 10
-1.724432320866799
 20
0.5306937819928543
 30
0.0
 40
0.050078423624478
210
0.0
220
0.0
230
-1.0
  0
ARC
  5
AA
330
A
100
AcDbEntity
  8
ADP1DETAIL
  6
CONTINUOUS
 62
     7
100
AcDbCircle
 10
-1.761154863580497
 20
0.6285983632382043
 30
0.0
 40
0.050078423624478
210
0.0
220
0.0
230
-1.0
100
AcDbArc
 50
199.6088455109649
 51
16.34195124686595
  0
ARC
  5
AB
330
A
100
AcDbEntity
  8
ADP1DETAIL
  6
CONTINUOUS
 62
     7
100
AcDbCircle
 10
-1.474247007331083
 20
1.237149499204145
 30
0.0
 40
0.0880985897339856
210
0.0
220
0.0
230
-1.0
100
AcDbArc
 50
272.0394464459863
 51
136.5599989142659
  0
CIRCLE
  5
AC
330
A
100
AcDbEntity
  8
ADP1DETAIL
  6
CONTINUOUS
 62
     7
100
AcDbCircle
 10
-1.32946388403613
 20
1.625720260970421
 30
0.0
 40
0.050078423624478
210
0.0
220
0.0
230
-1.0
  0
ARC
  5
AD
330
A
100
AcDbEntity
  8
ADP1DETAIL
  6
CONTINUOUS
 62
     7
100
AcDbCircle
 10
-1.23155930279078
 20
1.662442803684118
 30
0.0
 40
0.050078423624478
210
0.0
220
0.0
230
-1.0
100
AcDbArc
 50
109.6088455109641
 51
286.3419512468667
  0
ARC
  5
AE
330
A
100
AcDbEntity
  8
ADP1DETAIL
  6
CONTINUOUS
 62
     7
100
AcDbCircle
 10
-1.420331900305387
 20
1.576658499785584
 30
0.0
 40
0.050078423624478
210
0.0
220
0.0
230
-1.0
100
AcDbArc
 50
300.8024877955442
 51
124.1095864013664
  0
ARC
  5
AF
330
A
100
AcDbEntity
  8
ADP1DETAIL
  6
CONTINUOUS
 62
     7
100
AcDbCircle
 10
-1.280484989725916
 20
1.410111431406168
 30
0.0
 40
0.0880985897339857
210
0.0
220
0.0
230
-1.0
100
AcDbArc
 50
126.9474793614728
 51
351.468031829754
  0
CIRCLE
  5
B0
330
A
100
AcDbEntity
  8
ADP1DETAIL
  6
CONTINUOUS
 62
     7
100
AcDbCircle
 10
-1.63484621967328
 20
1.379354566592386
 30
0.0
 40
0.050078423624478
210
0.0
220
0.0
230
-1.0
  0
ARC
  5
B1
330
A
100
AcDbEntity
  8
ADP1DETAIL
  6
CONTINUOUS
 62
     7
100
AcDbCircle
 10
-1.561911370498465
 20
1.460849669964523
 30
0.0
 40
0.050078423624478
210
0.0
220
0.0
230
-1.0
100
AcDbArc
 50
137.0385622914753
 51
313.4137991333457
  0
ARC
  5
B2
330
A
100
AcDbEntity
  8
ADP1DETAIL
  6
CONTINUOUS
 62
     7
100
AcDbCircle
 10
-1.690619950355402
 20
1.293570262693852
 30
0.0
 40
0.0500784236244782
210
0.0
220
0.0
230
-1.0
100
AcDbArc
 50
328.9432474969121
 51
150.9053613260292
  0
LWPOLYLINE
  5
B3
330
A
100
AcDbEntity
  8
ADPDIM
  6
CONTINUOUS
 62
     3
 48
0.125
100
AcDbPolyline
 90
        2
 70
   128
 43
0.0
 10
1.111901823594399
 20
0.0068055575305455
 10
2.276783067759829
 20
0.0068055575305455
  0
LWPOLYLINE
  5
B7
330
A
100
AcDbEntity
  8
ADPDIM
  6
CONTINUOUS
 62
     3
 48
0.125
100
AcDbPolyline
 90
        2
 70
   128
 43
0.0
 10
1.111901823594399
 20
1.751768153229466
 10
2.276783067759829
 20
1.751768153229466
  0
LWPOLYLINE
  5
BB
330
A
100
AcDbEntity
  8
ADPDIM
  6
CONTINUOUS
 62
     3
 48
0.125
100
AcDbPolyline
 90
        2
 70
   128
 43
0.0
 10
2.09678306775983
 20
0.0068055575305455
 10
2.09678306775983
 20
0.4834535220466727
  0
LWPOLYLINE
  5
BF
330
A
100
AcDbEntity
  8
ADPDIM
  6
CONTINUOUS
 62
     3
 48
0.125
100
AcDbPolyline
 90
        2
 70
   128
 43
0.0
 10
2.09678306775983
 20
1.751768153229466
 10
2.09678306775983
 20
1.275120188713339
  0
LWPOLYLINE
  5
C3
330
A
100
AcDbEntity
  8
ADPDIM
  6
CONTINUOUS
 62
     3
 48
0.125
100
AcDbPolyline
 90
        2
 70
   128
 43
0.0
 10
2.22178306775983
 20
1.626768153229466
 10
1.97178306775983
 20
1.876768153229466
  0
LWPOLYLINE
  5
C7
330
A
100
AcDbEntity
  8
ADPDIM
  6
CONTINUOUS
 62
     3
 48
0.125
100
AcDbPolyline
 90
        2
 70
   128
 43
0.0
 10
2.22178306775983
 20
-0.1181944424694545
 10
1.97178306775983
 20
0.1318055575305455
  0
TEXT
  5
CB
330
A
100
AcDbEntity
  8
ADPDIM
 62
     3
 48
0.0
100
AcDbText
 10
1.78428306775983
 20
0.816786855380006
 30
0.0
 40
0.125
  1
1 3/4
 41
1.153846153846153
 72
     5
 11
2.40928306775983
 21
0.816786855380006
 31
0.0
100
AcDbText
  0
LWPOLYLINE
  5
CC
330
A
100
AcDbEntity
  8
DEFPOINTS
  6
CONTINUOUS
 62
     3
 48
0.125
100
AcDbPolyline
 90
        2
 70
   128
 43
0.0
 10
1.0494018235944
 20
0.0068055575305451
 10
1.0494018235944
 20
0.0068055575305451
  0
LWPOLYLINE
  5
D0
330
A
100
AcDbEntity
  8
DEFPOINTS
  6
CONTINUOUS
 62
     3
 48
0.125
100
AcDbPolyline
 90
        2
 70
   128
 43
0.0
 10
1.0494018235944
 20
0.0068055575305451
 10
1.0494018235944
 20
0.0068055575305451
  0
LWPOLYLINE
  5
D4
330
A
100
AcDbEntity
  8
DEFPOINTS
  6
CONTINUOUS
 62
     3
 48
0.125
100
AcDbPolyline
 90
        2
 70
   128
 43
0.0
 10
1.0494018235944
 20
1.751768153229466
 10
1.0494018235944
 20
1.751768153229466
  0
LWPOLYLINE
  5
D8
330
A
100
AcDbEntity
  8
DEFPOINTS
  6
CONTINUOUS
 62
     3
 48
0.125
100
AcDbPolyline
 90
        2
 70
   128
 43
0.0
 10
1.0494018235944
 20
1.751768153229466
 10
1.0494018235944
 20
1.751768153229466
  0
LWPOLYLINE
  5
DC
330
A
100
AcDbEntity
  8
DEFPOINTS
  6
CONTINUOUS
 62
     3
 48
0.125
100
AcDbPolyline
 90
        2
 70
   128
 43
0.0
 10
2.096783067759829
 20
1.751768153229466
 10
2.096783067759829
 20
1.751768153229466
  0
LWPOLYLINE
  5
E0
330
A
100
AcDbEntity
  8
DEFPOINTS
  6
CONTINUOUS
 62
     3
 48
0.125
100
AcDbPolyline
 90
        2
 70
   128
 43
0.0
 10
2.096783067759829
 20
1.751768153229466
 10
2.096783067759829
 20
1.751768153229466
  0
TEXT
  5
F1
330
A
100
AcDbEntity
  8
ADPDIM
100
AcDbText
 10
-2.279646552212038
 20
-0.3575344513739149
 30
0.0
 40
0.0625
  1
J U L I U S  B L U M  &  C O . ,  I N C .      ( 8 0 0 )  5 2 6 - 6 2 9 3        W W W . J U L I U S B L U M . C O M        P A R T  N o .  1 6 0 1
 41
1.25
  7
ARIAL_WIDE
 72
     1
 11
0.9832179600662698
 21
-0.2950344513739149
 31
0.0
100
AcDbText
 73
     3
  0
ENDSEC
  0
SECTION
  2
OBJECTS
  0
DICTIONARY
  5
19
330
0
100
AcDbDictionary
  3
ACAD_GROUP
350
1A
  3
ACAD_LAYOUT
350
E9
  3
ACAD_MLINESTYLE
350
1B
  3
ACAD_PLOTSETTINGS
350
EA
  3
ACAD_PLOTSTYLENAME
350
E7
  3
ACDBHEADERROUNDTRIPXREC
350
2B3
  3
ACDBVARIABLEDICTIONARY
350
153
  0
DICTIONARY
  5
147
330
A
100
AcDbDictionary
280
     1
  3
ACAD_LAYOUTSELFREF
360
2D3
  0
DICTIONARY
  5
149
330
B
100
AcDbDictionary
280
     1
  3
ACAD_LAYOUTSELFREF
360
2D4
  0
DICTIONARY
  5
1A
102
{ACAD_REACTORS
330
19
102
}
330
19
100
AcDbDictionary
  0
DICTIONARY
  5
E9
102
{ACAD_REACTORS
330
19
102
}
330
19
100
AcDbDictionary
  0
DICTIONARY
  5
1B
102
{ACAD_REACTORS
330
19
102
}
330
19
100
AcDbDictionary
  3
STANDARD
350
1C
  0
DICTIONARY
  5
EA
102
{ACAD_REACTORS
330
19
102
}
330
19
100
AcDbDictionary
  0
ACDBDICTIONARYWDFLT
  5
E7
102
{ACAD_REACTORS
330
19
102
}
330
19
100
AcDbDictionary
281
     1
  3
Normal
350
E8
100
AcDbDictionaryWithDefault
340
E8
  0
DICTIONARY
  5
2B3
102
{ACAD_REACTORS
330
19
102
}
330
19
100
AcDbDictionary
  3
CEPSNTYPE
350
2BD
  3
FINGERPRINTGUID
350
2BE
  3
HYPERLINKBASE
350
2B6
  3
INSUNITS
350
2BC
  3
LAYOUTDICT
350
2B8
  3
LWETCUNION
350
2BB
  3
PLOTSETDICT
350
2B9
  3
PLOTSTYLNAMDICT
350
2BA
  3
PSVPSCALE
350
2C0
  3
PUCSBASE
350
2C3
  3
PUCSORGBACK
350
2C9
  3
PUCSORGBOTTOM
350
2C5
  3
PUCSORGFRONT
350
2C8
  3
PUCSORGLEFT
350
2C6
  3
PUCSORGRIGHT
350
2C7
  3
PUCSORGTOP
350
2C4
  3
PUCSORTHOREF
350
2C1
  3
PUCSORTHOVIEW
350
2C2
  3
STYLESHEET
350
2B7
  3
TSTACKALIGN
350
2B4
  3
TSTACKSIZE
350
2B5
  3
UCSBASE
350
2CC
  3
UCSORGBACK
350
2D2
  3
UCSORGBOTTOM
350
2CE
  3
UCSORGFRONT
350
2D1
  3
UCSORGLEFT
350
2CF
  3
UCSORGRIGHT
350
2D0
  3
UCSORGTOP
350
2CD
  3
UCSORTHOREF
350
2CA
  3
UCSORTHOVIEW
350
2CB
  3
VERSIONGUID
350
2BF
  0
DICTIONARY
  5
153
102
{ACAD_REACTORS
330
19
102
}
330
19
100
AcDbDictionary
  3
DIMASSOC
350
154
  0
XRECORD
  5
2D3
102
{ACAD_REACTORS
330
147
102
}
330
147
100
AcDbXrecord
340
A
  0
XRECORD
  5
2D4
102
{ACAD_REACTORS
330
149
102
}
330
149
100
AcDbXrecord
340
B
  0
MLINESTYLE
  5
1C
102
{ACAD_REACTORS
330
1B
102
}
330
1B
100
AcDbMlineStyle
  2
STANDARD
 70
     0
  3

 62
     0
 51
90.00000000000019
 52
90.00000000000019
 71
     2
 49
0.5
 62
   256
  6
BYLAYER
 49
-0.5
 62
   256
  6
BYLAYER
  0
ACDBPLACEHOLDER
  5
E8
102
{ACAD_REACTORS
330
E7
102
}
330
E7
100
AcDbPlaceHolder
280
     0
  0
XRECORD
  5
2BD
102
{ACAD_REACTORS
330
2B3
102
}
330
2B3
100
AcDbXrecord
 90
        0
  0
XRECORD
  5
2BE
102
{ACAD_REACTORS
330
2B3
102
}
330
2B3
100
AcDbXrecord
  1
{9C578028-F0A6-44B2-9FCB-30F97D371564}
  0
XRECORD
  5
2B6
102
{ACAD_REACTORS
330
2B3
102
}
330
2B3
100
AcDbXrecord
  1

  0
XRECORD
  5
2BC
102
{ACAD_REACTORS
330
2B3
102
}
330
2B3
100
AcDbXrecord
 90
        0
  0
XRECORD
  5
2B8
102
{ACAD_REACTORS
330
2B3
102
}
330
2B3
100
AcDbXrecord
340
E9
  0
XRECORD
  5
2BB
102
{ACAD_REACTORS
330
2B3
102
}
330
2B3
100
AcDbXrecord
 90
    14877
  0
XRECORD
  5
2B9
102
{ACAD_REACTORS
330
2B3
102
}
330
2B3
100
AcDbXrecord
340
EA
  0
XRECORD
  5
2BA
102
{ACAD_REACTORS
330
2B3
102
}
330
2B3
100
AcDbXrecord
340
E7
  0
XRECORD
  5
2C0
102
{ACAD_REACTORS
330
2B3
102
}
330
2B3
100
AcDbXrecord
 40
0.0
  0
XRECORD
  5
2C3
102
{ACAD_REACTORS
330
2B3
102
}
330
2B3
100
AcDbXrecord
340
0
  0
XRECORD
  5
2C9
102
{ACAD_REACTORS
330
2B3
102
}
330
2B3
100
AcDbXrecord
 10
0.0
 20
0.0
 30
0.0
  0
XRECORD
  5
2C5
102
{ACAD_REACTORS
330
2B3
102
}
330
2B3
100
AcDbXrecord
 10
0.0
 20
0.0
 30
0.0
  0
XRECORD
  5
2C8
102
{ACAD_REACTORS
330
2B3
102
}
330
2B3
100
AcDbXrecord
 10
0.0
 20
0.0
 30
0.0
  0
XRECORD
  5
2C6
102
{ACAD_REACTORS
330
2B3
102
}
330
2B3
100
AcDbXrecord
 10
0.0
 20
0.0
 30
0.0
  0
XRECORD
  5
2C7
102
{ACAD_REACTORS
330
2B3
102
}
330
2B3
100
AcDbXrecord
 10
0.0
 20
0.0
 30
0.0
  0
XRECORD
  5
2C4
102
{ACAD_REACTORS
330
2B3
102
}
330
2B3
100
AcDbXrecord
 10
0.0
 20
0.0
 30
0.0
  0
XRECORD
  5
2C1
102
{ACAD_REACTORS
330
2B3
102
}
330
2B3
100
AcDbXrecord
340
0
  0
XRECORD
  5
2C2
102
{ACAD_REACTORS
330
2B3
102
}
330
2B3
100
AcDbXrecord
 70
     0
  0
XRECORD
  5
2B7
102
{ACAD_REACTORS
330
2B3
102
}
330
2B3
100
AcDbXrecord
  1

  0
XRECORD
  5
2B4
102
{ACAD_REACTORS
330
2B3
102
}
330
2B3
100
AcDbXrecord
 90
        1
  0
XRECORD
  5
2B5
102
{ACAD_REACTORS
330
2B3
102
}
330
2B3
100
AcDbXrecord
 90
       70
  0
XRECORD
  5
2CC
102
{ACAD_REACTORS
330
2B3
102
}
330
2B3
100
AcDbXrecord
340
0
  0
XRECORD
  5
2D2
102
{ACAD_REACTORS
330
2B3
102
}
330
2B3
100
AcDbXrecord
 10
0.0
 20
0.0
 30
0.0
  0
XRECORD
  5
2CE
102
{ACAD_REACTORS
330
2B3
102
}
330
2B3
100
AcDbXrecord
 10
0.0
 20
0.0
 30
0.0
  0
XRECORD
  5
2D1
102
{ACAD_REACTORS
330
2B3
102
}
330
2B3
100
AcDbXrecord
 10
0.0
 20
0.0
 30
0.0
  0
XRECORD
  5
2CF
102
{ACAD_REACTORS
330
2B3
102
}
330
2B3
100
AcDbXrecord
 10
0.0
 20
0.0
 30
0.0
  0
XRECORD
  5
2D0
102
{ACAD_REACTORS
330
2B3
102
}
330
2B3
100
AcDbXrecord
 10
0.0
 20
0.0
 30
0.0
  0
XRECORD
  5
2CD
102
{ACAD_REACTORS
330
2B3
102
}
330
2B3
100
AcDbXrecord
 10
0.0
 20
0.0
 30
0.0
  0
XRECORD
  5
2CA
102
{ACAD_REACTORS
330
2B3
102
}
330
2B3
100
AcDbXrecord
340
0
  0
XRECORD
  5
2CB
102
{ACAD_REACTORS
330
2B3
102
}
330
2B3
100
AcDbXrecord
 70
     0
  0
XRECORD
  5
2BF
102
{ACAD_REACTORS
330
2B3
102
}
330
2B3
100
AcDbXrecord
  1
{55962132-7276-4D84-AB63-4550739E2AFD}
  0
DICTIONARYVAR
  5
154
102
{ACAD_REACTORS
330
153
102
}
330
153
100
DictionaryVariables
280
     0
  1
1
  0
ENDSEC
  0
EOF
