  0
SECTION
  2
HEADER
  9
$ACADVER
  1
AC1014
  9
$ACADMAINTVER
 70
     9
  9
$DWGCODEPAGE
  3
ANSI_1252
  9
$INSBASE
 10
0.0
 20
0.0
 30
0.0
  9
$EXTMIN
 10
11.86029727680601
 20
-10.55664878593111
 30
0.0
  9
$EXTMAX
 10
24.91175532591925
 20
-8.074937455239741
 30
0.0
  9
$LIMMIN
 10
0.0
 20
0.0
  9
$LIMMAX
 10
0.0
 20
0.0
  9
$ORTHOMODE
 70
     1
  9
$REGENMODE
 70
     1
  9
$FILLMODE
 70
     1
  9
$QTEXTMODE
 70
     0
  9
$MIRRTEXT
 70
     1
  9
$DRAGMODE
 70
     0
  9
$LTSCALE
 40
1.0
  9
$OSMODE
 70
    37
  9
$ATTMODE
 70
     1
  9
$TEXTSIZE
 40
0.0
  9
$TRACEWID
 40
0.05
  9
$TEXTSTYLE
  7
STANDARD
  9
$CLAYER
  8
0
  9
$CELTYPE
  6
CONTINUOUS
  9
$CECOLOR
 62
   256
  9
$CELTSCALE
 40
1.0
  9
$DELOBJ
 70
     1
  9
$DISPSILH
 70
     0
  9
$DIMSCALE
 40
1.0
  9
$DIMASZ
 40
0.18
  9
$DIMEXO
 40
0.0625
  9
$DIMDLI
 40
0.38
  9
$DIMRND
 40
0.0
  9
$DIMDLE
 40
0.0
  9
$DIMEXE
 40
0.18
  9
$DIMTP
 40
0.0
  9
$DIMTM
 40
0.0
  9
$DIMTXT
 40
0.18
  9
$DIMCEN
 40
0.09
  9
$DIMTSZ
 40
0.0
  9
$DIMTOL
 70
     0
  9
$DIMLIM
 70
     0
  9
$DIMTIH
 70
     1
  9
$DIMTOH
 70
     1
  9
$DIMSE1
 70
     0
  9
$DIMSE2
 70
     0
  9
$DIMTAD
 70
     0
  9
$DIMZIN
 70
     0
  9
$DIMBLK
  1

  9
$DIMASO
 70
     1
  9
$DIMSHO
 70
     1
  9
$DIMPOST
  1

  9
$DIMAPOST
  1

  9
$DIMALT
 70
     0
  9
$DIMALTD
 70
     2
  9
$DIMALTF
 40
25.4
  9
$DIMLFAC
 40
1.0
  9
$DIMTOFL
 70
     0
  9
$DIMTVP
 40
0.0
  9
$DIMTIX
 70
     0
  9
$DIMSOXD
 70
     0
  9
$DIMSAH
 70
     0
  9
$DIMBLK1
  1

  9
$DIMBLK2
  1

  9
$DIMSTYLE
  2
STANDARD
  9
$DIMCLRD
 70
     0
  9
$DIMCLRE
 70
     0
  9
$DIMCLRT
 70
     0
  9
$DIMTFAC
 40
1.0
  9
$DIMGAP
 40
0.09
  9
$DIMJUST
 70
     0
  9
$DIMSD1
 70
     0
  9
$DIMSD2
 70
     0
  9
$DIMTOLJ
 70
     1
  9
$DIMTZIN
 70
     0
  9
$DIMALTZ
 70
     0
  9
$DIMALTTZ
 70
     0
  9
$DIMFIT
 70
     3
  9
$DIMUPT
 70
     0
  9
$DIMUNIT
 70
     2
  9
$DIMDEC
 70
     4
  9
$DIMTDEC
 70
     4
  9
$DIMALTU
 70
     2
  9
$DIMALTTD
 70
     2
  9
$DIMTXSTY
  7
STANDARD
  9
$DIMAUNIT
 70
     0
  9
$LUNITS
 70
     2
  9
$LUPREC
 70
     4
  9
$SKETCHINC
 40
0.1
  9
$FILLETRAD
 40
0.0
  9
$AUNITS
 70
     0
  9
$AUPREC
 70
     0
  9
$MENU
  1
acad
  9
$ELEVATION
 40
0.0
  9
$PELEVATION
 40
0.0
  9
$THICKNESS
 40
0.0
  9
$LIMCHECK
 70
     0
  9
$BLIPMODE
 70
     0
  9
$CHAMFERA
 40
0.0
  9
$CHAMFERB
 40
0.0
  9
$CHAMFERC
 40
0.0
  9
$CHAMFERD
 40
0.0
  9
$SKPOLY
 70
     0
  9
$TDCREATE
 40
2444971.791666666
  9
$TDUPDATE
 40
2452297.081126840
  9
$TDINDWG
 40
0.0432837731
  9
$TDUSRTIMER
 40
0.0432837731
  9
$USRTIMER
 70
     1
  9
$ANGBASE
 50
0.0
  9
$ANGDIR
 70
     0
  9
$PDMODE
 70
     0
  9
$PDSIZE
 40
0.0
  9
$PLINEWID
 40
0.0
  9
$COORDS
 70
     2
  9
$SPLFRAME
 70
     0
  9
$SPLINETYPE
 70
     6
  9
$SPLINESEGS
 70
     8
  9
$ATTDIA
 70
     0
  9
$ATTREQ
 70
     1
  9
$HANDLING
 70
 22529
  9
$HANDSEED
  5
2AB
  9
$SURFTAB1
 70
     6
  9
$SURFTAB2
 70
     6
  9
$SURFTYPE
 70
     6
  9
$SURFU
 70
     6
  9
$SURFV
 70
     6
  9
$UCSNAME
  2

  9
$UCSORG
 10
0.0
 20
0.0
 30
0.0
  9
$UCSXDIR
 10
1.0
 20
0.0
 30
0.0
  9
$UCSYDIR
 10
0.0
 20
1.0
 30
0.0
  9
$PUCSNAME
  2

  9
$PUCSORG
 10
0.0
 20
0.0
 30
0.0
  9
$PUCSXDIR
 10
1.0
 20
0.0
 30
0.0
  9
$PUCSYDIR
 10
0.0
 20
1.0
 30
0.0
  9
$USERI1
 70
     0
  9
$USERI2
 70
     0
  9
$USERI3
 70
     0
  9
$USERI4
 70
     0
  9
$USERI5
 70
     0
  9
$USERR1
 40
0.0
  9
$USERR2
 40
0.0
  9
$USERR3
 40
0.0
  9
$USERR4
 40
0.0
  9
$USERR5
 40
0.0
  9
$WORLDVIEW
 70
     1
  9
$SHADEDGE
 70
     3
  9
$SHADEDIF
 70
    70
  9
$TILEMODE
 70
     1
  9
$MAXACTVP
 70
    16
  9
$PINSBASE
 10
0.0
 20
0.0
 30
0.0
  9
$PLIMCHECK
 70
     0
  9
$PEXTMIN
 10
1.000000000000000E+20
 20
1.000000000000000E+20
 30
1.000000000000000E+20
  9
$PEXTMAX
 10
-1.000000000000000E+20
 20
-1.000000000000000E+20
 30
-1.000000000000000E+20
  9
$PLIMMIN
 10
0.0
 20
0.0
  9
$PLIMMAX
 10
12.0
 20
9.0
  9
$UNITMODE
 70
     0
  9
$VISRETAIN
 70
     0
  9
$PLINEGEN
 70
     0
  9
$PSLTSCALE
 70
     0
  9
$TREEDEPTH
 70
  3020
  9
$PICKSTYLE
 70
     1
  9
$CMLSTYLE
  2
STANDARD
  9
$CMLJUST
 70
     0
  9
$CMLSCALE
 40
1.0
  9
$PROXYGRAPHICS
 70
     1
  9
$MEASUREMENT
 70
     0
  0
ENDSEC
  0
SECTION
  2
CLASSES
  0
CLASS
  1
LWPOLYLINE
  2
AcDbPolyline
  3
AutoCAD 2000
 90
        0
280
     0
281
     1
  0
CLASS
  1
IMAGE
  2
AcDbRasterImage
  3
ISM
 90
      127
280
     0
281
     1
  0
CLASS
  1
OLE2FRAME
  2
AcDbOle2Frame
  3
AutoCAD 2000
 90
        0
280
     0
281
     1
  0
CLASS
  1
HATCH
  2
AcDbHatch
  3
AutoCAD 2000
 90
        0
280
     0
281
     1
  0
CLASS
  1
DICTIONARYVAR
  2
AcDbDictionaryVar
  3
AutoCAD 2000
 90
        0
280
     0
281
     0
  0
CLASS
  1
RASTERVARIABLES
  2
AcDbRasterVariables
  3
ISM
 90
        0
280
     0
281
     0
  0
CLASS
  1
IMAGEDEF
  2
AcDbRasterImageDef
  3
ISM
 90
        0
280
     0
281
     0
  0
CLASS
  1
IMAGEDEF_REACTOR
  2
AcDbRasterImageDefReactor
  3
ISM
 90
        1
280
     0
281
     0
  0
CLASS
  1
IDBUFFER
  2
AcDbIdBuffer
  3
AutoCAD 2000
 90
        0
280
     0
281
     0
  0
CLASS
  1
SPATIAL_FILTER
  2
AcDbSpatialFilter
  3
AutoCAD 2000
 90
        0
280
     0
281
     0
  0
CLASS
  1
XRECORD
  2
AcDbXrecord
  3
AutoCAD 2000
 90
        0
280
     0
281
     0
  0
CLASS
  1
SORTENTSTABLE
  2
AcDbSortentsTable
  3
AutoCAD 2000
 90
        0
280
     0
281
     0
  0
CLASS
  1
LAYER_INDEX
  2
AcDbLayerIndex
  3
AutoCAD 2000
 90
        0
280
     0
281
     0
  0
CLASS
  1
SPATIAL_INDEX
  2
AcDbSpatialIndex
  3
AutoCAD 2000
 90
        0
280
     0
281
     0
  0
CLASS
  1
OBJECT_PTR
  2
CAseDLPNTableRecord
  3
ASE-LPNTableRecord
 90
        1
280
     0
281
     0
  0
CLASS
  1
ACDBDICTIONARYWDFLT
  2
AcDbDictionaryWithDefault
  3
AutoCAD 2000
 90
        0
280
     0
281
     0
  0
CLASS
  1
ACDBPLACEHOLDER
  2
AcDbPlaceHolder
  3
AutoCAD 2000
 90
        0
280
     0
281
     0
  0
CLASS
  1
LAYOUT
  2
AcDbLayout
  3
AutoCAD 2000
 90
        0
280
     0
281
     0
  0
CLASS
  1
LONG_TRANSACTION
  2
AcDbLongTransaction
  3
AutoCAD 2000
 90
        0
280
     0
281
     0
  0
CLASS
  1
LWPOLYLINE
  2
AcDbPolyline
  3
AutoCAD 2000
 90
        0
280
     0
281
     1
  0
CLASS
  1
HATCH
  2
AcDbHatch
  3
AutoCAD 2000
 90
        0
280
     0
281
     1
  0
CLASS
  1
XRECORD
  2
AcDbXrecord
  3
AutoCAD 2000
 90
        0
280
     0
281
     0
  0
CLASS
  1
LONG_TRANSACTION
  2
AcDbLongTransaction
  3
AutoCAD 2000
 90
        0
280
     0
281
     0
  0
CLASS
  1
LWPOLYLINE
  2
AcDbPolyline
  3
AutoCAD 2000
 90
        0
280
     0
281
     1
  0
CLASS
  1
HATCH
  2
AcDbHatch
  3
AutoCAD 2000
 90
        0
280
     0
281
     1
  0
CLASS
  1
XRECORD
  2
AcDbXrecord
  3
AutoCAD 2000
 90
        0
280
     0
281
     0
  0
CLASS
  1
LONG_TRANSACTION
  2
AcDbLongTransaction
  3
AutoCAD 2000
 90
        0
280
     0
281
     0
  0
CLASS
  1
LWPOLYLINE
  2
AcDbPolyline
  3
AutoCAD 2000
 90
        0
280
     0
281
     1
  0
CLASS
  1
HATCH
  2
AcDbHatch
  3
AutoCAD 2000
 90
        0
280
     0
281
     1
  0
CLASS
  1
XRECORD
  2
AcDbXrecord
  3
AutoCAD 2000
 90
        0
280
     0
281
     0
  0
CLASS
  1
LONG_TRANSACTION
  2
AcDbLongTransaction
  3
AutoCAD 2000
 90
        0
280
     0
281
     0
  0
CLASS
  1
LWPOLYLINE
  2
AcDbPolyline
  3
AutoCAD 2000
 90
        0
280
     0
281
     1
  0
CLASS
  1
HATCH
  2
AcDbHatch
  3
AutoCAD 2000
 90
        0
280
     0
281
     1
  0
CLASS
  1
XRECORD
  2
AcDbXrecord
  3
AutoCAD 2000
 90
        0
280
     0
281
     0
  0
CLASS
  1
LONG_TRANSACTION
  2
AcDbLongTransaction
  3
AutoCAD 2000
 90
        0
280
     0
281
     0
  0
CLASS
  1
LWPOLYLINE
  2
AcDbPolyline
  3
AutoCAD 2000
 90
        0
280
     0
281
     1
  0
CLASS
  1
HATCH
  2
AcDbHatch
  3
AutoCAD 2000
 90
        0
280
     0
281
     1
  0
CLASS
  1
XRECORD
  2
AcDbXrecord
  3
AutoCAD 2000
 90
        0
280
     0
281
     0
  0
CLASS
  1
LONG_TRANSACTION
  2
AcDbLongTransaction
  3
AutoCAD 2000
 90
        0
280
     0
281
     0
  0
CLASS
  1
LWPOLYLINE
  2
AcDbPolyline
  3
AutoCAD 2000
 90
        0
280
     0
281
     1
  0
CLASS
  1
HATCH
  2
AcDbHatch
  3
AutoCAD 2000
 90
        0
280
     0
281
     1
  0
CLASS
  1
XRECORD
  2
AcDbXrecord
  3
AutoCAD 2000
 90
        0
280
     0
281
     0
  0
ENDSEC
  0
SECTION
  2
TABLES
  0
TABLE
  2
VPORT
  5
7
330
0
100
AcDbSymbolTable
 70
     3
  0
VPORT
  5
2D
330
7
100
AcDbSymbolTableRecord
100
AcDbViewportTableRecord
  2
DCADVPORT
 70
     0
 10
16.34808213332497
 20
-9.860071677905267
 11
20.57352630136263
 21
-8.074937455239741
 12
6.209999999999999
 22
9.019999999999999
 13
0.0
 23
0.0
 14
1.0
 24
1.0
 15
0.0
 25
0.0
 16
0.0
 26
0.0
 36
1.0
 17
0.0
 27
0.0
 37
0.0
 40
18.04
 41
0.688564
 42
50.0
 43
1.0
 44
1.0
 50
0.0
 51
0.0
 71
     0
 72
   100
 73
     1
 74
     1
 75
     0
 76
     0
 77
     0
 78
     0
  0
VPORT
  5
288
330
7
100
AcDbSymbolTableRecord
100
AcDbViewportTableRecord
  2
*ACTIVE
 70
     0
 10
0.0
 20
0.0
 11
1.0
 21
1.0
 12
18.39580385911777
 22
-9.31546291271529
 13
0.0
 23
0.0
 14
1.0
 24
1.0
 15
0.0
 25
0.0
 16
0.0
 26
0.0
 36
1.0
 17
0.0
 27
0.0
 37
0.0
 40
8.364658589746415
 41
1.570528967254408
 42
50.0
 43
0.0
 44
0.0
 50
0.0
 51
0.0
 71
     0
 72
   100
 73
     1
 74
     1
 75
     0
 76
     0
 77
     0
 78
     0
  0
ENDTAB
  0
TABLE
  2
LTYPE
  5
4
330
0
100
AcDbSymbolTable
 70
     2
  0
LTYPE
  5
11
330
4
100
AcDbSymbolTableRecord
100
AcDbLinetypeTableRecord
  2
BYBLOCK
 70
     0
  3

 72
    65
 73
     0
 40
0.0
  0
LTYPE
  5
12
330
4
100
AcDbSymbolTableRecord
100
AcDbLinetypeTableRecord
  2
BYLAYER
 70
     0
  3

 72
    65
 73
     0
 40
0.0
  0
LTYPE
  5
13
330
4
100
AcDbSymbolTableRecord
100
AcDbLinetypeTableRecord
  2
CONTINUOUS
 70
     0
  3
Solid line
 72
    65
 73
     0
 40
0.0
  0
LTYPE
  5
1E
330
4
100
AcDbSymbolTableRecord
100
AcDbLinetypeTableRecord
  2
CONTINUOUS
 70
     0
  3
Solid line
 72
    65
 73
     0
 40
0.0
  0
ENDTAB
  0
TABLE
  2
LAYER
  5
2
330
0
100
AcDbSymbolTable
 70
     4
  0
LAYER
  5
14
330
2
100
AcDbSymbolTableRecord
100
AcDbLayerTableRecord
  2
0
 70
     0
 62
     7
  6
CONTINUOUS
  0
LAYER
  5
2A
330
2
100
AcDbSymbolTableRecord
100
AcDbLayerTableRecord
  2
ADP1DETAIL
 70
     0
 62
   250
  6
CONTINUOUS
  0
LAYER
  5
2B
330
2
100
AcDbSymbolTableRecord
100
AcDbLayerTableRecord
  2
DEFPOINTS
 70
     0
 62
   250
  6
CONTINUOUS
  0
LAYER
  5
2C
330
2
100
AcDbSymbolTableRecord
100
AcDbLayerTableRecord
  2
ADPDIM
 70
     0
 62
     3
  6
CONTINUOUS
  0
ENDTAB
  0
TABLE
  2
STYLE
  5
3
330
0
100
AcDbSymbolTable
 70
     2
  0
STYLE
  5
17
330
3
100
AcDbSymbolTableRecord
100
AcDbTextStyleTableRecord
  2
STANDARD
 70
     0
 40
0.0
 41
1.0
 50
0.0
 71
     0
 42
0.0
  3
txt
  4

  0
STYLE
  5
F5
330
3
100
AcDbSymbolTableRecord
100
AcDbTextStyleTableRecord
  2
ARIAL_WIDE
 70
     0
 40
0.0
 41
1.25
 50
0.0
 71
     0
 42
0.2
  3
ARIAL.TTF
  4

1001
ACAD
1000
Arial
1071
       34
  0
ENDTAB
  0
TABLE
  2
VIEW
  5
5
330
0
100
AcDbSymbolTable
 70
     0
  0
ENDTAB
  0
TABLE
  2
UCS
  5
6
330
0
100
AcDbSymbolTable
 70
     0
  0
ENDTAB
  0
TABLE
  2
APPID
  5
8
330
0
100
AcDbSymbolTable
 70
     1
  0
APPID
  5
16
330
8
100
AcDbSymbolTableRecord
100
AcDbRegAppTableRecord
  2
ACAD
 70
     0
  0
ENDTAB
  0
TABLE
  2
DIMSTYLE
  5
9
330
0
100
AcDbSymbolTable
 70
     1
  0
DIMSTYLE
105
18
330
9
100
AcDbSymbolTableRecord
100
AcDbDimStyleTableRecord
  2
STANDARD
 70
     0
  3

  4

  5

  6

  7

 40
1.0
 41
0.18
 42
0.0625
 43
0.38
 44
0.18
 45
0.0
 46
0.0
 47
0.0
 48
0.0
140
0.18
141
0.09
142
0.0
143
25.4
144
1.0
145
0.0
146
1.0
147
0.09
 71
     0
 72
     0
 73
     1
 74
     1
 75
     0
 76
     0
 77
     0
 78
     0
170
     0
171
     2
172
     0
173
     0
174
     0
175
     0
176
     0
177
     0
178
     0
270
     2
271
     4
272
     4
273
     2
274
     2
340
17
275
     0
280
     0
281
     0
282
     0
283
     1
284
     0
285
     0
286
     0
287
     0
288
     0
  0
ENDTAB
  0
TABLE
  2
BLOCK_RECORD
  5
1
330
0
100
AcDbSymbolTable
 70
     0
  0
BLOCK_RECORD
  5
A
102
{ACAD_XDICTIONARY
360
14C
102
}
330
1
100
AcDbSymbolTableRecord
100
AcDbBlockTableRecord
  2
*MODEL_SPACE
  0
BLOCK_RECORD
  5
B
102
{ACAD_XDICTIONARY
360
14E
102
}
330
1
100
AcDbSymbolTableRecord
100
AcDbBlockTableRecord
  2
*PAPER_SPACE
  0
ENDTAB
  0
ENDSEC
  0
SECTION
  2
BLOCKS
  0
BLOCK
  5
D
330
A
100
AcDbEntity
  8
0
100
AcDbBlockBegin
  2
*MODEL_SPACE
 70
     0
 10
0.0
 20
0.0
 30
0.0
  3
*MODEL_SPACE
  1

  0
ENDBLK
  5
E
330
A
100
AcDbEntity
  8
0
100
AcDbBlockEnd
  0
BLOCK
  5
F
330
B
100
AcDbEntity
 67
     1
  8
0
100
AcDbBlockBegin
  2
*PAPER_SPACE
 70
     0
 10
0.0
 20
0.0
 30
0.0
  3
*PAPER_SPACE
  1

  0
ENDBLK
  5
10
330
B
100
AcDbEntity
 67
     1
  8
0
100
AcDbBlockEnd
  0
ENDSEC
  0
SECTION
  2
ENTITIES
  0
ARC
  5
2E
330
A
100
AcDbEntity
  8
ADP1DETAIL
  6
CONTINUOUS
 62
     7
100
AcDbCircle
 10
-17.10502630136263
 20
-9.641071677905269
 30
0.0
 40
0.0940000000000012
210
0.0
220
0.0
230
-1.0
100
AcDbArc
 50
270.0000000000008
 51
360.0000000000008
  0
ARC
  5
2F
330
A
100
AcDbEntity
  8
ADP1DETAIL
  6
CONTINUOUS
 62
     7
100
AcDbCircle
 10
-17.10502630136263
 20
-8.579071677905265
 30
0.0
 40
0.0939999999999994
210
0.0
220
0.0
230
-1.0
100
AcDbArc
 50
0.0
 51
90.0
  0
LWPOLYLINE
  5
30
330
A
100
AcDbEntity
  8
ADP1DETAIL
  6
CONTINUOUS
 62
     7
100
AcDbPolyline
 90
        2
 70
   128
 43
0.0
 10
17.01102630136263
 20
-9.641071677905269
 10
17.01102630136263
 20
-8.579071677905265
  0
LWPOLYLINE
  5
34
330
A
100
AcDbEntity
  8
ADP1DETAIL
  6
CONTINUOUS
 62
     7
100
AcDbPolyline
 90
        2
 70
   128
 43
0.0
 10
17.13900650798133
 20
-9.548071677905262
 10
17.13900650798133
 20
-8.672071677905268
  0
LWPOLYLINE
  5
38
330
A
100
AcDbEntity
  8
ADP1DETAIL
  6
CONTINUOUS
 62
     7
100
AcDbPolyline
 90
        2
 70
   128
 43
0.0
 10
19.63900650798133
 20
-8.672071677905268
 10
19.63900650798133
 20
-9.548071677905266
  0
LWPOLYLINE
  5
3C
330
A
100
AcDbEntity
  8
ADP1DETAIL
  6
CONTINUOUS
 62
     7
100
AcDbPolyline
 90
        2
 70
   128
 43
0.0
 10
19.76102630136263
 20
-8.579071677905265
 10
19.76102630136263
 20
-9.641071677905269
  0
LWPOLYLINE
  5
40
330
A
100
AcDbEntity
  8
ADP1DETAIL
  6
CONTINUOUS
 62
     7
100
AcDbPolyline
 90
        2
 70
   128
 43
0.0
 10
19.57700650798133
 20
-9.610071677905267
 10
17.20100650798133
 20
-9.610071677905263
  0
LWPOLYLINE
  5
44
330
A
100
AcDbEntity
  8
ADP1DETAIL
  6
CONTINUOUS
 62
     7
100
AcDbPolyline
 90
        2
 70
   128
 43
0.0
 10
19.66702630136263
 20
-9.735071677905267
 10
17.10502630136263
 20
-9.735071677905267
  0
ARC
  5
48
330
A
100
AcDbEntity
  8
ADP1DETAIL
  6
CONTINUOUS
 62
     7
100
AcDbCircle
 10
-17.20100650798133
 20
-9.548071677905262
 30
0.0
 40
0.0620000000000012
210
0.0
220
0.0
230
-1.0
100
AcDbArc
 50
270.0000000000008
 51
360.0000000000008
  0
ARC
  5
49
330
A
100
AcDbEntity
  8
ADP1DETAIL
  6
CONTINUOUS
 62
     7
100
AcDbCircle
 10
-19.66702630136263
 20
-9.641071677905269
 30
0.0
 40
0.0939999999999994
210
0.0
220
0.0
230
-1.0
100
AcDbArc
 50
180.0
 51
270.0000000000008
  0
ARC
  5
4A
330
A
100
AcDbEntity
  8
ADP1DETAIL
  6
CONTINUOUS
 62
     7
100
AcDbCircle
 10
-19.57700650798133
 20
-9.548071677905266
 30
0.0
 40
0.0619999999999994
210
0.0
220
0.0
230
-1.0
100
AcDbArc
 50
180.0
 51
270.0000000000008
  0
LWPOLYLINE
  5
4B
330
A
100
AcDbEntity
  8
ADP1DETAIL
  6
CONTINUOUS
 62
     7
100
AcDbPolyline
 90
        2
 70
   128
 43
0.0
 10
17.20100650798133
 20
-8.610071677905267
 10
19.57700650798133
 20
-8.610071677905267
  0
LWPOLYLINE
  5
4F
330
A
100
AcDbEntity
  8
ADP1DETAIL
  6
CONTINUOUS
 62
     7
100
AcDbPolyline
 90
        2
 70
   128
 43
0.0
 10
17.10502630136263
 20
-8.485071677905267
 10
19.66702630136263
 20
-8.485071677905267
  0
ARC
  5
53
330
A
100
AcDbEntity
  8
ADP1DETAIL
  6
CONTINUOUS
 62
     7
100
AcDbCircle
 10
-17.20100650798133
 20
-8.672071677905268
 30
0.0
 40
0.0620000000000012
210
0.0
220
0.0
230
-1.0
100
AcDbArc
 50
0.0
 51
90.0
  0
ARC
  5
54
330
A
100
AcDbEntity
  8
ADP1DETAIL
  6
CONTINUOUS
 62
     7
100
AcDbCircle
 10
-19.66702630136263
 20
-8.579071677905265
 30
0.0
 40
0.0939999999999977
210
0.0
220
0.0
230
-1.0
100
AcDbArc
 50
90.0
 51
180.0
  0
ARC
  5
55
330
A
100
AcDbEntity
  8
ADP1DETAIL
  6
CONTINUOUS
 62
     7
100
AcDbCircle
 10
-19.57700650798133
 20
-8.672071677905268
 30
0.0
 40
0.0620000000000012
210
0.0
220
0.0
230
-1.0
100
AcDbArc
 50
90.0
 51
180.0
  0
LWPOLYLINE
  5
56
330
A
100
AcDbEntity
  8
ADPDIM
  6
CONTINUOUS
 62
     3
 48
0.125
100
AcDbPolyline
 90
        2
 70
   128
 43
0.0
 10
17.04252630136263
 20
-8.485071677905267
 10
16.34808213332497
 20
-8.485071677905267
  0
LWPOLYLINE
  5
5A
330
A
100
AcDbEntity
  8
ADPDIM
  6
CONTINUOUS
 62
     3
 48
0.125
100
AcDbPolyline
 90
        2
 70
   128
 43
0.0
 10
17.04252630136263
 20
-9.735071677905267
 10
16.34808213332497
 20
-9.735071677905267
  0
LWPOLYLINE
  5
5E
330
A
100
AcDbEntity
  8
ADPDIM
  6
CONTINUOUS
 62
     3
 48
0.125
100
AcDbPolyline
 90
        2
 70
   128
 43
0.0
 10
16.52808213332497
 20
-8.485071677905267
 10
16.52808213332497
 20
-8.735071677905267
  0
LWPOLYLINE
  5
62
330
A
100
AcDbEntity
  8
ADPDIM
  6
CONTINUOUS
 62
     3
 48
0.125
100
AcDbPolyline
 90
        2
 70
   128
 43
0.0
 10
16.52808213332497
 20
-9.735071677905267
 10
16.52808213332497
 20
-9.485071677905267
  0
LWPOLYLINE
  5
66
330
A
100
AcDbEntity
  8
ADPDIM
  6
CONTINUOUS
 62
     3
 48
0.125
100
AcDbPolyline
 90
        2
 70
   128
 43
0.0
 10
16.65308213332497
 20
-8.610071677905267
 10
16.40308213332497
 20
-8.360071677905267
  0
LWPOLYLINE
  5
6A
330
A
100
AcDbEntity
  8
ADPDIM
  6
CONTINUOUS
 62
     3
 48
0.125
100
AcDbPolyline
 90
        2
 70
   128
 43
0.0
 10
16.65308213332497
 20
-9.860071677905267
 10
16.40308213332497
 20
-9.610071677905267
  0
TEXT
  5
6E
330
A
100
AcDbEntity
  8
ADPDIM
 62
     3
 48
0.0
100
AcDbText
 10
16.59058213332497
 20
-9.360071677905267
 30
0.0
 40
0.125
  1
1 1/4
 50
90.0
 72
     5
 11
16.59058213332497
 21
-8.860071677905267
 31
0.0
100
AcDbText
  0
LWPOLYLINE
  5
6F
330
A
100
AcDbEntity
  8
ADPDIM
  6
CONTINUOUS
 62
     3
 48
0.125
100
AcDbPolyline
 90
        2
 70
   128
 43
0.0
 10
17.01102630136263
 20
-8.516571677905265
 10
17.01102630136263
 20
-8.074937455239741
  0
LWPOLYLINE
  5
73
330
A
100
AcDbEntity
  8
ADPDIM
  6
CONTINUOUS
 62
     3
 48
0.125
100
AcDbPolyline
 90
        2
 70
   128
 43
0.0
 10
19.76102630136263
 20
-8.516571677905265
 10
19.76102630136263
 20
-8.074937455239741
  0
LWPOLYLINE
  5
77
330
A
100
AcDbEntity
  8
ADPDIM
  6
CONTINUOUS
 62
     3
 48
0.125
100
AcDbPolyline
 90
        2
 70
   128
 43
0.0
 10
17.01102630136263
 20
-8.25493745523974
 10
17.96935963469596
 20
-8.25493745523974
  0
LWPOLYLINE
  5
7B
330
A
100
AcDbEntity
  8
ADPDIM
  6
CONTINUOUS
 62
     3
 48
0.125
100
AcDbPolyline
 90
        2
 70
   128
 43
0.0
 10
19.76102630136263
 20
-8.25493745523974
 10
18.8026929680293
 20
-8.25493745523974
  0
LWPOLYLINE
  5
7F
330
A
100
AcDbEntity
  8
ADPDIM
  6
CONTINUOUS
 62
     3
 48
0.125
100
AcDbPolyline
 90
        2
 70
   128
 43
0.0
 10
16.88602630136263
 20
-8.37993745523974
 10
17.13602630136263
 20
-8.12993745523974
  0
LWPOLYLINE
  5
83
330
A
100
AcDbEntity
  8
ADPDIM
  6
CONTINUOUS
 62
     3
 48
0.125
100
AcDbPolyline
 90
        2
 70
   128
 43
0.0
 10
19.63602630136263
 20
-8.37993745523974
 10
19.88602630136263
 20
-8.12993745523974
  0
TEXT
  5
87
330
A
100
AcDbEntity
  8
ADPDIM
 62
     3
 48
0.0
100
AcDbText
 10
18.09435963469596
 20
-8.31743745523974
 30
0.0
 40
0.125
  1
2 3/4
 72
     5
 11
18.6776929680293
 21
-8.31743745523974
 31
0.0
100
AcDbText
  0
LWPOLYLINE
  5
88
330
A
100
AcDbEntity
  8
ADPDIM
  6
CONTINUOUS
 62
     3
 48
0.125
100
AcDbPolyline
 90
        2
 70
   128
 43
0.0
 10
19.63900650798133
 20
-9.172571677905267
 10
19.63900650798133
 20
-9.297282152238688
  0
LWPOLYLINE
  5
8C
330
A
100
AcDbEntity
  8
ADPDIM
  6
CONTINUOUS
 62
     3
 48
0.125
100
AcDbPolyline
 90
        2
 70
   128
 43
0.0
 10
19.76102630136263
 20
-9.172571677905267
 10
19.76102630136263
 20
-9.297282152238688
  0
LWPOLYLINE
  5
90
330
A
100
AcDbEntity
  8
ADPDIM
  6
CONTINUOUS
 62
     3
 48
0.125
100
AcDbPolyline
 90
        2
 70
   128
 43
0.0
 10
19.63900650798133
 20
-9.117282152238688
 10
19.38900650798133
 20
-9.117282152238688
  0
LWPOLYLINE
  5
94
330
A
100
AcDbEntity
  8
ADPDIM
  6
CONTINUOUS
 62
     3
 48
0.125
100
AcDbPolyline
 90
        2
 70
   128
 43
0.0
 10
19.76102630136263
 20
-9.117282152238688
 10
20.01102630136263
 20
-9.117282152238688
  0
LWPOLYLINE
  5
98
330
A
100
AcDbEntity
  8
ADPDIM
  6
CONTINUOUS
 62
     3
 48
0.125
100
AcDbPolyline
 90
        2
 70
   128
 43
0.0
 10
19.51400650798133
 20
-9.242282152238688
 10
19.76400650798133
 20
-8.992282152238688
  0
LWPOLYLINE
  5
9C
330
A
100
AcDbEntity
  8
ADPDIM
  6
CONTINUOUS
 62
     3
 48
0.125
100
AcDbPolyline
 90
        2
 70
   128
 43
0.0
 10
19.63602630136263
 20
-9.242282152238688
 10
19.88602630136263
 20
-8.992282152238688
  0
TEXT
  5
A0
330
A
100
AcDbEntity
  8
ADPDIM
 62
     3
 48
0.0
100
AcDbText
 10
20.13602630136263
 20
-9.179782152238688
 30
0.0
 40
0.125
  1
0.125
 72
     5
 11
20.57352630136263
 21
-9.179782152238688
 31
0.0
100
AcDbText
  0
LWPOLYLINE
  5
A1
330
A
100
AcDbEntity
  8
DEFPOINTS
  6
CONTINUOUS
 62
     3
 48
0.125
100
AcDbPolyline
 90
        2
 70
   128
 43
0.0
 10
17.10502630136263
 20
-8.485071677905269
 10
17.10502630136263
 20
-8.485071677905269
  0
LWPOLYLINE
  5
A5
330
A
100
AcDbEntity
  8
DEFPOINTS
  6
CONTINUOUS
 62
     3
 48
0.125
100
AcDbPolyline
 90
        2
 70
   128
 43
0.0
 10
17.10502630136263
 20
-8.485071677905269
 10
17.10502630136263
 20
-8.485071677905269
  0
LWPOLYLINE
  5
A9
330
A
100
AcDbEntity
  8
DEFPOINTS
  6
CONTINUOUS
 62
     3
 48
0.125
100
AcDbPolyline
 90
        2
 70
   128
 43
0.0
 10
17.10502630136263
 20
-9.735071677905269
 10
17.10502630136263
 20
-9.735071677905269
  0
LWPOLYLINE
  5
AD
330
A
100
AcDbEntity
  8
DEFPOINTS
  6
CONTINUOUS
 62
     3
 48
0.125
100
AcDbPolyline
 90
        2
 70
   128
 43
0.0
 10
17.10502630136263
 20
-9.735071677905269
 10
17.10502630136263
 20
-9.735071677905269
  0
LWPOLYLINE
  5
B1
330
A
100
AcDbEntity
  8
DEFPOINTS
  6
CONTINUOUS
 62
     3
 48
0.125
100
AcDbPolyline
 90
        2
 70
   128
 43
0.0
 10
16.52808213332497
 20
-9.735071677905269
 10
16.52808213332497
 20
-9.735071677905269
  0
LWPOLYLINE
  5
B5
330
A
100
AcDbEntity
  8
DEFPOINTS
  6
CONTINUOUS
 62
     3
 48
0.125
100
AcDbPolyline
 90
        2
 70
   128
 43
0.0
 10
16.52808213332497
 20
-9.735071677905269
 10
16.52808213332497
 20
-9.735071677905269
  0
LWPOLYLINE
  5
B9
330
A
100
AcDbEntity
  8
DEFPOINTS
  6
CONTINUOUS
 62
     3
 48
0.125
100
AcDbPolyline
 90
        2
 70
   128
 43
0.0
 10
17.01102630136263
 20
-8.579071677905266
 10
17.01102630136263
 20
-8.579071677905266
  0
LWPOLYLINE
  5
BD
330
A
100
AcDbEntity
  8
DEFPOINTS
  6
CONTINUOUS
 62
     3
 48
0.125
100
AcDbPolyline
 90
        2
 70
   128
 43
0.0
 10
17.01102630136263
 20
-8.579071677905266
 10
17.01102630136263
 20
-8.579071677905266
  0
LWPOLYLINE
  5
C1
330
A
100
AcDbEntity
  8
DEFPOINTS
  6
CONTINUOUS
 62
     3
 48
0.125
100
AcDbPolyline
 90
        2
 70
   128
 43
0.0
 10
19.76102630136263
 20
-8.579071677905266
 10
19.76102630136263
 20
-8.579071677905266
  0
LWPOLYLINE
  5
C5
330
A
100
AcDbEntity
  8
DEFPOINTS
  6
CONTINUOUS
 62
     3
 48
0.125
100
AcDbPolyline
 90
        2
 70
   128
 43
0.0
 10
19.76102630136263
 20
-8.579071677905266
 10
19.76102630136263
 20
-8.579071677905266
  0
LWPOLYLINE
  5
C9
330
A
100
AcDbEntity
  8
DEFPOINTS
  6
CONTINUOUS
 62
     3
 48
0.125
100
AcDbPolyline
 90
        2
 70
   128
 43
0.0
 10
19.76102630136263
 20
-8.25493745523974
 10
19.76102630136263
 20
-8.25493745523974
  0
LWPOLYLINE
  5
CD
330
A
100
AcDbEntity
  8
DEFPOINTS
  6
CONTINUOUS
 62
     3
 48
0.125
100
AcDbPolyline
 90
        2
 70
   128
 43
0.0
 10
19.76102630136263
 20
-8.25493745523974
 10
19.76102630136263
 20
-8.25493745523974
  0
LWPOLYLINE
  5
D1
330
A
100
AcDbEntity
  8
DEFPOINTS
  6
CONTINUOUS
 62
     3
 48
0.125
100
AcDbPolyline
 90
        2
 70
   128
 43
0.0
 10
19.63900650798133
 20
-9.110071677905269
 10
19.63900650798133
 20
-9.110071677905269
  0
LWPOLYLINE
  5
D5
330
A
100
AcDbEntity
  8
DEFPOINTS
  6
CONTINUOUS
 62
     3
 48
0.125
100
AcDbPolyline
 90
        2
 70
   128
 43
0.0
 10
19.63900650798133
 20
-9.110071677905269
 10
19.63900650798133
 20
-9.110071677905269
  0
LWPOLYLINE
  5
D9
330
A
100
AcDbEntity
  8
DEFPOINTS
  6
CONTINUOUS
 62
     3
 48
0.125
100
AcDbPolyline
 90
        2
 70
   128
 43
0.0
 10
19.76102630136263
 20
-9.110071677905269
 10
19.76102630136263
 20
-9.110071677905269
  0
LWPOLYLINE
  5
DD
330
A
100
AcDbEntity
  8
DEFPOINTS
  6
CONTINUOUS
 62
     3
 48
0.125
100
AcDbPolyline
 90
        2
 70
   128
 43
0.0
 10
19.76102630136263
 20
-9.110071677905269
 10
19.76102630136263
 20
-9.110071677905269
  0
LWPOLYLINE
  5
E1
330
A
100
AcDbEntity
  8
DEFPOINTS
  6
CONTINUOUS
 62
     3
 48
0.125
100
AcDbPolyline
 90
        2
 70
   128
 43
0.0
 10
19.76102630136263
 20
-9.11728215223869
 10
19.76102630136263
 20
-9.11728215223869
  0
LWPOLYLINE
  5
E5
330
A
100
AcDbEntity
  8
DEFPOINTS
  6
CONTINUOUS
 62
     3
 48
0.125
100
AcDbPolyline
 90
        2
 70
   128
 43
0.0
 10
19.76102630136263
 20
-9.11728215223869
 10
19.76102630136263
 20
-9.11728215223869
  0
TEXT
  5
F6
330
A
100
AcDbEntity
  8
ADPDIM
100
AcDbText
 10
11.86029727680601
 20
-10.51964332890519
 30
0.0
 40
0.125
  1
J U L I U S  B L U M  &  C O . ,  I N C .      ( 8 0 0 )  5 2 6 - 6 2 9 3        W W W . J U L I U S B L U M . C O M        P A R T  N o .  1 3 3 4
 41
1.25
  7
ARIAL_WIDE
 72
     1
 11
18.38602630136263
 21
-10.39464332890519
 31
0.0
100
AcDbText
 73
     3
  0
ENDSEC
  0
SECTION
  2
OBJECTS
  0
DICTIONARY
  5
19
330
0
100
AcDbDictionary
  3
ACAD_GROUP
350
1A
  3
ACAD_LAYOUT
350
EE
  3
ACAD_MLINESTYLE
350
1B
  3
ACAD_PLOTSETTINGS
350
EF
  3
ACAD_PLOTSTYLENAME
350
EC
  3
ACDBHEADERROUNDTRIPXREC
350
289
  3
ACDBVARIABLEDICTIONARY
350
158
  0
DICTIONARY
  5
14C
330
A
100
AcDbDictionary
280
     1
  3
ACAD_LAYOUTSELFREF
360
2A9
  0
DICTIONARY
  5
14E
330
B
100
AcDbDictionary
280
     1
  3
ACAD_LAYOUTSELFREF
360
2AA
  0
DICTIONARY
  5
1A
102
{ACAD_REACTORS
330
19
102
}
330
19
100
AcDbDictionary
  0
DICTIONARY
  5
EE
102
{ACAD_REACTORS
330
19
102
}
330
19
100
AcDbDictionary
  0
DICTIONARY
  5
1B
102
{ACAD_REACTORS
330
19
102
}
330
19
100
AcDbDictionary
  3
STANDARD
350
1C
  0
DICTIONARY
  5
EF
102
{ACAD_REACTORS
330
19
102
}
330
19
100
AcDbDictionary
  0
ACDBDICTIONARYWDFLT
  5
EC
102
{ACAD_REACTORS
330
19
102
}
330
19
100
AcDbDictionary
281
     1
  3
Normal
350
ED
100
AcDbDictionaryWithDefault
340
ED
  0
DICTIONARY
  5
289
102
{ACAD_REACTORS
330
19
102
}
330
19
100
AcDbDictionary
  3
CEPSNTYPE
350
293
  3
FINGERPRINTGUID
350
294
  3
HYPERLINKBASE
350
28C
  3
INSUNITS
350
292
  3
LAYOUTDICT
350
28E
  3
LWETCUNION
350
291
  3
PLOTSETDICT
350
28F
  3
PLOTSTYLNAMDICT
350
290
  3
PSVPSCALE
350
296
  3
PUCSBASE
350
299
  3
PUCSORGBACK
350
29F
  3
PUCSORGBOTTOM
350
29B
  3
PUCSORGFRONT
350
29E
  3
PUCSORGLEFT
350
29C
  3
PUCSORGRIGHT
350
29D
  3
PUCSORGTOP
350
29A
  3
PUCSORTHOREF
350
297
  3
PUCSORTHOVIEW
350
298
  3
STYLESHEET
350
28D
  3
TSTACKALIGN
350
28A
  3
TSTACKSIZE
350
28B
  3
UCSBASE
350
2A2
  3
UCSORGBACK
350
2A8
  3
UCSORGBOTTOM
350
2A4
  3
UCSORGFRONT
350
2A7
  3
UCSORGLEFT
350
2A5
  3
UCSORGRIGHT
350
2A6
  3
UCSORGTOP
350
2A3
  3
UCSORTHOREF
350
2A0
  3
UCSORTHOVIEW
350
2A1
  3
VERSIONGUID
350
295
  0
DICTIONARY
  5
158
102
{ACAD_REACTORS
330
19
102
}
330
19
100
AcDbDictionary
  3
DIMASSOC
350
159
  0
XRECORD
  5
2A9
102
{ACAD_REACTORS
330
14C
102
}
330
14C
100
AcDbXrecord
340
A
  0
XRECORD
  5
2AA
102
{ACAD_REACTORS
330
14E
102
}
330
14E
100
AcDbXrecord
340
B
  0
MLINESTYLE
  5
1C
102
{ACAD_REACTORS
330
1B
102
}
330
1B
100
AcDbMlineStyle
  2
STANDARD
 70
     0
  3

 62
     0
 51
90.00000000000019
 52
90.00000000000019
 71
     2
 49
0.5
 62
   256
  6
BYLAYER
 49
-0.5
 62
   256
  6
BYLAYER
  0
ACDBPLACEHOLDER
  5
ED
102
{ACAD_REACTORS
330
EC
102
}
330
EC
100
AcDbPlaceHolder
280
     0
  0
XRECORD
  5
293
102
{ACAD_REACTORS
330
289
102
}
330
289
100
AcDbXrecord
 90
        0
  0
XRECORD
  5
294
102
{ACAD_REACTORS
330
289
102
}
330
289
100
AcDbXrecord
  1
{BFBDE25F-4454-420B-B3FA-E1CFDA0C96FE}
  0
XRECORD
  5
28C
102
{ACAD_REACTORS
330
289
102
}
330
289
100
AcDbXrecord
  1

  0
XRECORD
  5
292
102
{ACAD_REACTORS
330
289
102
}
330
289
100
AcDbXrecord
 90
        0
  0
XRECORD
  5
28E
102
{ACAD_REACTORS
330
289
102
}
330
289
100
AcDbXrecord
340
EE
  0
XRECORD
  5
291
102
{ACAD_REACTORS
330
289
102
}
330
289
100
AcDbXrecord
 90
    14877
  0
XRECORD
  5
28F
102
{ACAD_REACTORS
330
289
102
}
330
289
100
AcDbXrecord
340
EF
  0
XRECORD
  5
290
102
{ACAD_REACTORS
330
289
102
}
330
289
100
AcDbXrecord
340
EC
  0
XRECORD
  5
296
102
{ACAD_REACTORS
330
289
102
}
330
289
100
AcDbXrecord
 40
0.0
  0
XRECORD
  5
299
102
{ACAD_REACTORS
330
289
102
}
330
289
100
AcDbXrecord
340
0
  0
XRECORD
  5
29F
102
{ACAD_REACTORS
330
289
102
}
330
289
100
AcDbXrecord
 10
0.0
 20
0.0
 30
0.0
  0
XRECORD
  5
29B
102
{ACAD_REACTORS
330
289
102
}
330
289
100
AcDbXrecord
 10
0.0
 20
0.0
 30
0.0
  0
XRECORD
  5
29E
102
{ACAD_REACTORS
330
289
102
}
330
289
100
AcDbXrecord
 10
0.0
 20
0.0
 30
0.0
  0
XRECORD
  5
29C
102
{ACAD_REACTORS
330
289
102
}
330
289
100
AcDbXrecord
 10
0.0
 20
0.0
 30
0.0
  0
XRECORD
  5
29D
102
{ACAD_REACTORS
330
289
102
}
330
289
100
AcDbXrecord
 10
0.0
 20
0.0
 30
0.0
  0
XRECORD
  5
29A
102
{ACAD_REACTORS
330
289
102
}
330
289
100
AcDbXrecord
 10
0.0
 20
0.0
 30
0.0
  0
XRECORD
  5
297
102
{ACAD_REACTORS
330
289
102
}
330
289
100
AcDbXrecord
340
0
  0
XRECORD
  5
298
102
{ACAD_REACTORS
330
289
102
}
330
289
100
AcDbXrecord
 70
     0
  0
XRECORD
  5
28D
102
{ACAD_REACTORS
330
289
102
}
330
289
100
AcDbXrecord
  1

  0
XRECORD
  5
28A
102
{ACAD_REACTORS
330
289
102
}
330
289
100
AcDbXrecord
 90
        1
  0
XRECORD
  5
28B
102
{ACAD_REACTORS
330
289
102
}
330
289
100
AcDbXrecord
 90
       70
  0
XRECORD
  5
2A2
102
{ACAD_REACTORS
330
289
102
}
330
289
100
AcDbXrecord
340
0
  0
XRECORD
  5
2A8
102
{ACAD_REACTORS
330
289
102
}
330
289
100
AcDbXrecord
 10
0.0
 20
0.0
 30
0.0
  0
XRECORD
  5
2A4
102
{ACAD_REACTORS
330
289
102
}
330
289
100
AcDbXrecord
 10
0.0
 20
0.0
 30
0.0
  0
XRECORD
  5
2A7
102
{ACAD_REACTORS
330
289
102
}
330
289
100
AcDbXrecord
 10
0.0
 20
0.0
 30
0.0
  0
XRECORD
  5
2A5
102
{ACAD_REACTORS
330
289
102
}
330
289
100
AcDbXrecord
 10
0.0
 20
0.0
 30
0.0
  0
XRECORD
  5
2A6
102
{ACAD_REACTORS
330
289
102
}
330
289
100
AcDbXrecord
 10
0.0
 20
0.0
 30
0.0
  0
XRECORD
  5
2A3
102
{ACAD_REACTORS
330
289
102
}
330
289
100
AcDbXrecord
 10
0.0
 20
0.0
 30
0.0
  0
XRECORD
  5
2A0
102
{ACAD_REACTORS
330
289
102
}
330
289
100
AcDbXrecord
340
0
  0
XRECORD
  5
2A1
102
{ACAD_REACTORS
330
289
102
}
330
289
100
AcDbXrecord
 70
     0
  0
XRECORD
  5
295
102
{ACAD_REACTORS
330
289
102
}
330
289
100
AcDbXrecord
  1
{2091857C-D0BA-4BEE-909C-A9BEB1D8C285}
  0
DICTIONARYVAR
  5
159
102
{ACAD_REACTORS
330
158
102
}
330
158
100
DictionaryVariables
280
     0
  1
1
  0
ENDSEC
  0
EOF
